PrimaNota.ru - самый крупный в мире бесплатный архив песенных текстов, аккордов, табулатур и нот


Joe Pass - The Shadow Of Your Smile - таба, видео

Регистрация Запомнить меня
Войти через:  Facebook Google Twitter Vk Yandex Mail.ru

Joe Pass - The Shadow Of Your Smile - таба, видео

Печатать
Просмотров: 190
Авторы музыки: Johnny Mandel
Авторы текста: Paul Francis Webster
                           The Shadow Of Your Smile                             


                                                                        Joe Pass
Guitare Jazz



                               ^                         
                                      |--3--|            
     Q    E  E  E  E  E  E     Q.     E  E  E  Q    E    
E||-------------0--2--3--7--|---------------0--2--------|
B||----------0--------------|--2------------------------|
G||-------------------------|--2---------0--------------|
D||-------------------------|--2------------------------|
A||-------------------------|---------3-------------2~--|
E||-------------------------|--2------------------------|


                          ^                                                 
  E  E  E  Q.     Q       Q.     E  E  E  E  E     E  E  E  E  E  E  E  E   
-----------------------|------------------------|--------------0--2--3--7--|
--4-----1--4------1----|--0---------------------|-----------0--------------|
-----2------------2----|--0---------0-----0-----|--0-----0-----------------|
------------------1----|--4------4-----4-----4--|-----4--------------------|
------------------2----|------------------------|--------------------------|
-----------------------|--0---------------------|--------------------------|


     ^                     ^                  ^                    
                                                         |--3--|   
  E  Q    Q     E  Q       H        Q         H          E  E  E   
--L--0-------------5----|--0-------------|--<>7-------------------|
-----0-------------6----|--7-------------|--<>7-------------------|
-----5-------------6----|--5--------7----|--<>7----------------2--|
-------------------5----|--0-------------|--<>7-------------2-----|
----------0~------------|----------------|-------------4g3--------|
------------------------|----------------|------------------------|


  |--3--|  |--3--|  |--3--|                                             
  E  E  E  E  E  E  E  E  E     H         E  E     H        Q    E  E   
-----3--5--7--8--7--5--3-----|--5~--------------|----------------5-----|
--3--------------------------|--5~--------1-----|-----------0----7-----|
-----------------------------|--5~--------3-----|-----------2----8-----|
-----------------------------|--4~--------3--2--|--1-------------------|
-----------------------------|------------------|----------------------|
-----------------------------|------------------|-------------------7--|


                                                                          ^     
         |-3-|                                                                  
  Q.     S S S E  E  E  E     H        E  E  S S  E     E  E  E  E  E  E  Q     
--0--------5-3-2--0--------|-----------7--5--3-2S-3--|--L-----------0--3-------|
--8------7-----------0-----|-------------------------|-----------0--------0----|
--7---------------------0--|-------------------------|-------------------------|
---------------------------|--2----------------------|--------3-----------3----|
--7------------------------|-------------------------|-----4--------------4----|
---------------------------|-------------------------|--------------------3----|


  ^        ^            ^                                                       
                                                                   |--3--|      
  H        Q    Q       Q.     S S   E  Q    E     S S E  E  E  E  E  E  E  E   
-----------3---------|--2------0-2--------------|--0---2--3--7-----------------|
---------------------|--1----------3g4--0-------|----0-------------2--------1--|
--3--------3---------|--2-----------------------|------------------------2-----|
--2--------2---------|--------------------------|---------------------2--------|
----------------3----|--2--------------------3--|--3------------------------3--|
--2------------------|--------------------------|---------------2--2-----------|


  |--3--|  |--3--|           |--3--|                                     
  E  E  E  E  E  E  E  E     E  E  E  E  E     E  S S E  E  E  E  E  E   
--2-----0-----------------|-----------------|---------------0--2--5--3--|
-----1--------4-----1--1--|--------------1--|--0---------0--------------|
-----------------2--------|-----------------|---------0-----------------|
--------------------------|--4--3--2--1-----|-----2-4-------------------|
--3--------2--------------|-----------------|---------------------------|
--------------------------|-----------------|--0------------------------|


                                       ^                                      
                                                                    |--3--|   
  Q.     E  E  E  E  E     E  E  E  E  Q    Q       Q    Q.      E  E  E  E   
--2---------0--2--3--7--|--0-----0-----0----5----|--2----2~------------------|
--3------0--------------|--0-----0-----0----6----|--3------------3--2--3-----|
------------------------|--5-----5-----5----6----|--5------------------------|
--2---------------------|-------------------5----|---------------------------|
------------------------|--0--0-----0------------|--5------------------------|
------------------------|------------------------|------------------------7--|


                             |-----3----|              
   E.  S S S S S S S S S     Q     Q    Q    H         
--10-----------3-5-7-8---|--12----10----8----7--------|
-----------5-6-----------|--10----10---------5--------|
---------7---------------|--11----11---------7--------|
-------7-----------------|--10-----9---------6--------|
-------------------------|----------------------------|
---7---------------------|-------------------0--------|


   ^           ^                                
   |-----3-----|                                
   Q     Q     Q    Q        E  E  E  E  E  E   
--12----10~----8----7~----|--8-----0-----------|
--12-----------6----------|--------1--2--3--4--|
--10-----------7----------|-----0-----1--2--3--|
--12-----------6----------|--------------------|
--11----------------------|--0--------1--2--3--|
--------------------------|--------------------|


                                          |--3--|  |--3--|   
   E  E  S S S S S S S S S S E     E  S S E  E  E  E  E  E   
--10--8--7-5-3------------------|--8--7-5-7-----------------|
------8--------4-3-1-0----------|------------------9--8--7--|
------8----------------2-0------|---------------8-----------|
------7--------------------1-0--|------------7--------------|
--------------------------------|---------------------------|
--------------------------------|---------7-----------------|


  Q    Q    E  E  E  E     E  E  E  E  E  E  E  E     E  E  E  S S E  E  E  E   
------------8--7--5-----|--5--------2--1--------2--|--0--------0-3-7--5--3--2--|
--6------------------9--|--------2-----------1-----|--------1------------------|
--6---------------------|-----0-----------0--------|-----0---------------------|
--7---------------------|--------------------------|---------------0-----------|
------------------------|--0-----------------------|------------------------2--|
--7----0----------------|--------------------------|---------------------------|


  E  E  S S S S S S S S    S S E  S S S S S S S S  
--3---------2-0---------|-------------------------|
--------3-4-------0-3-1-|------0--0-0-------------|
-----0----------3-------|----0--------2-0---------|
------------------------|--2--------------4-2-0---|
--2---------------------|-----------------------3-|
------------------------|-------------------------|


        |--3--|  |--3--|  |--3--|     |--3--|          |--3--|  |--3--|   
  E  E  E  E  E  E  E  E  E  E  E     E  E  E  S S S S E  E  E  E  E  E   
-----------------------------------|-------------------------------------|
-----0--------0--------0--------0--|--------0--------0-------0--------0--|
-----------2--------2--------2-----|-----2---------0------0--------0-----|
--------2--------2--------1--------|--1----------0-----0--------0--------|
--2--------------------------------|-------------------------------------|
-----------------------------------|-------------------------------------|


                                  //                                       
  E  E  E  E  E  E  E  E     Q    Q    Q    Q        E  Q    E  Q    Q     
--------------0--2--3--7--|--0---------0----5----|-----------2--L---------|
--------0--0--------------|------------1----6----|---7--7----3--L----1----|
-----0--------------------|--5---------0----6----|---7-------5--L---------|
--------------------------|--5--------------5----|--10--0------------4----|
--4-----------------------|--0----0--------------|------------------------|
--------------------------|----------------------|-------------------4----|


                                                          |--3--|               
  Q.     S E  Q    S E     Q.     E  E   E  E  E     Q    E  E  E  E  E  E  E   
--5--------2--L---------|------------8~--7--5--3--|--5----3--5--7--5--0--------|
--7--------3--L---------|-------------------------|--5-------------------1-----|
--4------x-2--L----x-4--|--L----------------------|--5----------------------3--|
--5--------0--L------4--|--L----------------------|--4-------------------------|
------------------------|-------------------------|----------------------------|
---------------------3--|--L----------------------|----------------------------|


                               |--3--|                                         
  Q    Q    Q     Q       Q    E  E  E  E  E  E  E     Q    Q    E  S S E  E   
------------------5----|--3-------0--2--0-----------|---------------7-5-3--2--|
--0--------------------|--1----4-----------0--------|-------------------------|
-----------------------|----------------------0-----|-------------------------|
-------2----1~---------|--2----------------------4--|--2----0-----------------|
-----------------------|----------------------------|------------4------------|
-----------------------|----------------------------|-------------------------|


                                         ^                                  
  E  E  E  E  E  E  Q       Q    Q    E  E  E  E     Q    E  E  E  Q    E   
--3-----------0--3-------|-------5-------3--2--0--|--0----L--0-----0-------|
-----------0--------0----|---------------3--------|--7----L--7-----7----7--|
-------------------------|--3------------3--------|---------------------8--|
--------3-----------3----|--2---------------------|--7----L--7-----7----7--|
-----4-------------------|------------------------|------------------------|
--------------------3----|--2---------2-----------|--7----L-----7----------|


                            //                                                 
                            ^                        ^                         
  E  Q    E  E  E  E  E     Q    Q    E  E  E  E     Q    S S S S E  E  E  E   
-------------0--2--3--7--|------------------2-----|-------------0-------------|
--L----------0-----------|--2----2----------5-----|--4--------2---4-----0-----|
--L-------4--------------|--2----2----------3-----|--5------2--------5-----2--|
--L----------------------|--2----2----------------|--7----4-------------------|
-------------3-----------|---------------3--------|---------------------------|
-----7-------------------|--2---------3-----------|--7------------------------|


  E  E  E  E  E  E  E  E     E  E  E  E  E.  S  Q       Q    E  E  E  E  E  E   
--------2--5--3--0--------|--------0--2--3---7~-L----|--0-------5--------5-----|
--------------------0-----|-----0--------------------|----------6--------6-----|
--0--------------------2--|--0-----------------------|--5-------6--------6-----|
--------------------------|--------------------------|--5-------5--------5-----|
--------------------------|--------------------------|-------0--------0--------|
-----0--------0-----------|--------------------------|-------------------------|


                                   |---3--|  |--3--|   
  E  Q    E  E  E  E  E      Q     E   E  E  E  E  E   
-----2-------------------|--10----12--10--8--7--5--3--|
-----3-------3--3--2--3--|--10------------------------|
-----5-------------------|--11------------------------|
----------0--------------|---9------------------------|
--5----------------------|----------------------------|
-------------------------|----------------------------|


  |--3--|  |--3--|  |--3--|              |--3--|            
  E  E  E  E  E  E  E  E  E     E   E    S  S  S  E  E  E   
--0--1--3--0-----------------|-----12~-----------10--8--7--|
--------------1--------------|-----------------------------|
-----------------1-----------|----------------12-----------|
--------------------3--2-----|-------------12--------------|
-----------------------------|----------11--------------0--|
--------------------------0--|--L--------------------------|


  |--3--|                          |--3--|                              
  E  E  E  E  E  S E.     H        E  E  E     S S  S S  E   E   E.  S  
--8--------0-----------|--3-----------------|--3-6-10---13--11--10---8-|
--------1-----6--7-8---|--4-----------1--3--|-----------10-------8---7-|
-----0--------6--7-8---|--3--------4--------|------------7--12---8---8-|
--------------6--7-8---|--------------------|---------------10---8---7-|
--0--------------------|--3-----------------|--------------------------|
--------------6--7-8---|--------------------|--------------------------|


                                             ^    ^             
  E  Q    E  S E  S    S E  S E.  S S E.     Q    E  E  E  S S  
--L--7--------------|---------8-----------|--7----8--7--5--4---|
--L--6--------------|---------8-----------|--6----6------------|
--L--7--------------|---------8-----------|--7----7------------|
--L--6-------0------|---------7---3-L-----|--6----6------------|
--------------------|--3------------------|--------------------|
---------------3----|----1------------0---|--0---------------5-|


                                                         |--3--|  |--3--|   
  E  E  E  E  E  E     E  E  E  E  S S E  Q       S S E  E  E  E  E  E  E   
--5-----------------|----------------0---------|--7-L----5-----0--3--------|
-----------7--6-----|--6--6------------1-------|---------------------1--3--|
--------6-----------|--------6--5---------0----|------0-----5--------------|
-----5-----------5--|--------------0-----------|--0-L----------0-----------|
--------------------|--0-----------------------|---------------------------|
--5-----------------|--------------------------|---------------------------|


                                  ^                             
                                  |--3--|                       
  E  E  E  Q    E     E  E  E  E  E  E  E     E  E   H          
--2--------3-------|--------------------1--|--3--6--10~--------|
-----1--3----------|-----3--0-----3--4-----|---------8~--------|
-------------------|--5--------0--3--------|---------8~--------|
----------------0--|--------------5--------|---------8~--------|
-------------------|--------------3--------|-------------------|
-----------3-------|--3--------------------|-------------------|


                       ^        ^           ^        ^           
  H        H           H        H           H        H           
--8--------6--------|--3--------1--------|---------------------||
--8--------7--------|--4--------2--------|--3--------3~--------||
--8--------7--------|--4--------2--------|--5--------4~--------||
--7--------6--------|--3--------1--------|--4--------4~--------||
--------------------|--0--------0--------|---------------------||
-----------0--------|--------------------|--4--------3~--------||




Duration Legend
---------------
W - whole
H - half
Q - quarter
E - 8th
S - 16th
T - 32nd
X - 64th
. - note dotted
|-n-|  - n-tuplets


Tablature Legend
----------------
L - tied note
x - dead note
g - grace note
(n) - ghost note
> - accentuded note
NH - natural harmonic
AH - artificial harmonic
TH - tapped harmonic
SH - semi harmonic
PH - pitch harmonic
h - hammer on
p - pull off
b - bend
br - bendRelease
pb - preBend
pbr - preBendRelease
brb - bendReleaseBend
\n/ - tremolo bar dip
\n - tremolo bar dive
-/n - tremolo bar Release up
/n\ - tremolo bar inverted dip
/n - tremolo bar return
-\n - tremolo bar Release down
S - shift slide
s - legato slide
/ -  slide into from below or out of upwards
\ -  slide into from above or out of downwards
~ - vibrato
W - wide vibrato
tr - trill
TP - tremolo picking
T - tapping
S - slap
P - pop
< - fade in
^ - brush up
v - brush down
Добавлено: 01.06.2012
Другие материалы по этой песне:

Страница создана 01.06.2012
http://primanota.ru/joe-pass/the-shadow-of-your-smile-chords.htm
Привет, Гость.
Предлагаем пройти революционный курс по гитаре.
Подарок от PrimaNota.Ru, забирай!