PrimaNota.ru - самый крупный в мире бесплатный архив песенных текстов, аккордов, табулатур и нот


Joe Pass - Round Midnight - таба, видео

Регистрация Запомнить меня
Войти через:  Facebook Google Twitter Vk Yandex Mail.ru

Joe Pass - Round Midnight - таба, видео

Печатать
Просмотров: 116
                                Round Midnight                                  


                                                                        Joe Pass
acoustic



                  |--3--|              
     H        E.  T  T  T  S S X X S.  
E||-----------------------------------|
B||-----------------------------------|
G||---------------2S-3S-4S-5----------|
D||--------------------------8-7-5-7--|
A||-----------------------------------|
E||-----------------------------------|


  |-6-| |-6-| |-6-| |-6-|                 
  S S S S S S S S S S S S S S S S E  S S  
------------5---1-----1------------------|
----3---5-----------3-----3-----3-L--2-3-|
------------------2-----2-------1-L------|
------------------------------3----------|
--5---4---3---2-------------1------------|
-----------------------------------------|


                                     |--3--|              
  S S S T  T T T T T T T T T S T T S T  T  T  S S X X S.  
----5-3------5-----------------8-7-6---------------------|
----3---6h-7---8---------------6-------------------------|
----3------------7-------------6-----2S-3S-4S-5----------|
--2----------------8-7-5-------5----------------8-7-5-7--|
-------------------------5---0---------------------------|
---------------------------6-----------------------------|


  |--3--|  |--3--|                 
  E  E  E  E  E  E  Q    S S  S S  
-----------5--8-----7----L--------|
--------6-----------5----L-3S-6-8-|
-----7--6--5--------4----L--------|
--------------------3----L--------|
--5-------------------------------|
-----------------3----------------|


      |-3-|                                                          
  S S S S S T T T T T T T T  T   X  X  T  T  T  T  T T X  X S. S. T  
--------------------------8-11p-10p-9p-8----------------------------|
--9-------------------6-9----------------11-10---------9----8-------|
------------5-------6--------------------------10--------10---------|
----------6---8-7-8-------------------------------11-8--------------|
--------8-----------------------------------------------------------|
----6-9-----------------------------------------------------------4-|


  T T T T T T T T  T T T T T T   X  X  T  T T T T T  T T T T T T  T T T T  T  
---------------------------7-8h-10p-9p-8p-7-8-----7--------------------------|
-------------------------8----------------------8---10-8-7-------------------|
---------------------7-9----------------------9------------9-7-6----8--------|
--------5-9-6-7-9-10---------------------------------------------10---6-7----|
------7-------------------------------------------------------------------10-|
--5-8------------------------------------------------------------------------|


                           |--3-|            
  T T S S  S S S  S  S S S S S  S  S  S S S  
--------------------10---8------------------|
---------------7-10--------9----------------|
-------------8---------------8--------------|
--------7-10-------------------10-----------|
--7-8-9---------------------------11--------|
-------------------------------------11-8-4-|


          |---3--|                             |-6-| |-6-|            |-3-|  
  S S S S E   E  E   E  E   E   E     S  S S S S S S S S S S S S S E  S S S  
------3-6-8--10-----13-----12------|-------------8-------------3------------|
----3---8-7---6-----11-----10--11--|----10---8---6-----6-----5---5-L----5---|
----3---------------10------9--10--|-----9---7---6-----5-----4---4-L--7-----|
----3----------------9------8--11--|----10---8---5-----4-----3---3-L--------|
--------------------------------9--|--8----7---0---0-5----------------------|
--3--------------9------8----------|---------------------4-3----------L---7-|


  S S S S E  S T  T S S S S S S S S  
------------------------------------|
--6-----6-6----5h-6-5-----------5---|
------7-------------------7-------7-|
----7-------------------7---6-------|
------------------------------------|
--7-----------------7-7-----6-6-----|


  |--3--|  |-6-| |--6--|              |--6--|  |--6--|  
  E  E  E  S S S S  S  S  S  S  S  S  S  S  S  S  S  S  
----------------------11-17-15-11----------------------|
-------------------10-------------11-10----------------|
--6--------------8----------------------12-10----------|
--5--7---------7------------------------------11-10----|
--------0----6--------------------------------------13-|
-----------5-------------------------------------------|


           |--3--|    |-3-|     |5|     |---5---| 5 5 5                  
   S S S S E  E  E  S T T T S S S X E.  S S S S S S S S S S S S S S S S  
-----------5------------------------------------------------------------|
---------5-------6--L-----------------------3-------3-------3---3-2-3---|
-------7-6-5-----4--L-----------3---------2-------2-------2---1-1-------|
-----0-----0--0-----0-2-4-2-1-2---------3-------1---------------------2-|
--12------------------------------2-2-----------------2-1---------------|
----------------------------------------------1---L---------------------|


  |--3--|  |-6-| |---6---| |-6-| |-6-| |-6-| |-6-|          
  E  E  E  S S S T  T  S S S S S S S S S S S S S S S S S S  
--5--3--5--6-8-6-5h-6p-5---------------8---6---5---3-------|
--3----------------------8-6-------------------------------|
--3--------------------------7-5---------5---3---2---------|
---------------------------------8-7-----------------5---7-|
-------------------------------------0-----------------5---|
-----------------------------------------------------------|


        |--3--|                  
  E  E  E  E  E  E  E  S S  S S  
--------5--8-----7-----7--------|
-----6-----------6-----5-3s-6-8-|
--7--6--5--------5-----4--------|
-----------------4-----3--------|
--------------------------------|
--------------4--L--3--L--------|


  |---5---| |-6-| 6 6 --|---5---|                             
  S S S S S S S S S S S S S S S S S  T  T T T T  T  S  S S S  
--------6-------------------5-------10-11-8------------------|
--9-------9-8-------------8---8---7---------9----------------|
------7---------8---7---6---------5-----------8--------------|
--------------8-----6---5-------0-0-------------10-----------|
----------------------0-L---0----------------------11--------|
----6---L---------6-----------------------------------11-8-4-|


                                          |--3--|            |--3--|   
  S S S S  E  E   E  E   E   E      E  E  E  E  E  S S S S   E  E  E   
------3-6-10-----13-----12------|---------8-----5-----------12-----0--|
----3---8--7-----11-----10--11--|--10--8--6-----6----6---5s-10--------|
----3------------10------9--10--|---9--7--6-----5----5---4s-10--7-----|
----3-------------9------8--11--|--10--8--5----------4---3s--9--------|
-----------------------------9--|---8--7-----5------------------------|
--3-----------9------8----------|------------------4---3--------------|


      |-3-|           |--3--|              
  S S S S S S S S S S T  T  T S S S S S S  
----------------------------------------0-|
----6---5-----3---3---2h-3p-2---2-2-------|
----7---7-----4---3-----------4-3-2---7---|
----7---6-----5---5-----------------0-----|
------------0---0---0---------------------|
--7---0---6-------------------------------|


                  |-6-| 6 6 --            |--3--|   
  S S S S E  S  S S S S S S S S T  T  S S E  E  E   
---------------------------------------------------|
----6-----6--5h-6-5-----------5--------------------|
--------7---------------7-----7-7h-9p-7-5-6--------|
------7---------------7---6---6--------------7-----|
------------------------------------------------0--|
--7-----------------7-------0-L--------------------|


                                                 |--3--|  
  T T T T T T  T T T T  T T T T  T T S S S  S E  S  S  S  
--8-5-6-8-5------5---------------------------------------|
------------6h-8---6------6------------------------------|
---------------------6h-8---6------6---------------------|
------------------------------7h-9---7---5h-7------------|
---------------------------------------8------8--4h-7h-8-|
---------------------------------------------------------|


  |--3--| |--3--|                                        
  S  S  S S  S  S S S S S S S S S S S S S S S S S  S  S  
------------------------------------------------5-10-12-|
------------------6-------------------------5-6---------|
----------5h-6h-8---6-5-------------------7-------------|
--5h-7h-8---------------8-7-5-----------7---------------|
------------------------------8-4-----------------------|
----------------------------------8-6-5-----------------|


                |-----5-----|                             |--3--|   |--3--|   
   S  S  S   S  S  S  S  S  S  E   S  S     E   Q     E   E  E  E   E  E  E   
-----13-12h-13-12-----------------12----|--------------------------10--7-----|
-----15--------------------14-13-----15-|------14----10---L--9--8---------8--|
-----14-----------------13----13--------|------12----------------------------|
---------------------12-----------------|------------------------------------|
--12------------------------------------|--12--------12---L------------------|
------------------12--------------------|------------------------------------|


           |--3--|                        |----7----|  7 7 --|---5---|          
  S S S  S E  E  E  E  E   E  E     E  E  S  S  S S S  S S S S S S S S S S S S  
-----------------------5/--8--7--|-----6----------3-5h-6-5-L---------3---------|
--7------------------------7-----|-----3--3h-5h-6--------------3---5-------3-5-|
----7----------------------8-----|-----3--3--------------------3---3-----6-2-3-|
------9----------7--L------7-----|-----3---------------------------------5-3-5-|
--------10-9--7------------------|-------------------------3-3---4-----0-----4-|
---------------------------------|--3------------------------------------------|


  S S S S S S S S S S S S     S  S  S  S  S  S  S  S  S  S  S S S S S S  
------5-------------------|--12-------------10-------------10---------8-|
--6-8-6-6---5---------6---|---------------------------------------------|
--5-7-5-----7---7-----6---|-----12----------------11----10----------9---|
--7-9-------7-7---6---6---|--------------------10-------------9---8-----|
--5-7-5---------------5-0-|---L----12----------------10-----------------|
----------7---------0-----|-----------11-10---------------------8-------|


                                          |----7---| 7 7  
  S S S S S S S S S S S S T T T T T T T T S S  S S S S S  
------8---------6---------6---8-6-----5------------------|
------------------------8---8-----6-8---8----------------|
----8---------7-------7-------------------7--------------|
--------7---6-------6-----------------------8p-7-5-------|
--8---------------7--------------------------------5---0-|
----------6------------------------------------------6---|


                  |--3--|             
  S. T  T T S S S S  S  S  S S T T S  
--8--7p-6-----5-3--------------------|
--6-------6---6-4--------------------|
--6---------6-6---2s-3s-4s-5---------|
--5--------------------------8-7-5-7-|
-------------------------------------|
-------------------------------------|


  |-6-| |-6-| |-6-| |-6-|                  |-6| |-6-|  
  S S S S S S S S S S S S  T T T T T T T T E  S S S S  
------------5---1-----1--------------0------------5-6-|
----3---5-----------3--------------5---5----------3---|
------------------2-----2s-7-----7-------7----6-7-3---|
-------------------------------6-----------6------2---|
--5---4---3---2---------------------------------------|
-----------------------------6------------------------|


                                               |-3|    |---5---|  
  Q    S S S  S E  E  E  E     S S S S S S S S E  Q    S S S S S  
--3----5-6-8s-9-8--6--5-----|------------8---7----7--------------|
--3----6--------6-----3--8--|--6-----6-6-----6----5------5-6-8---|
--3----6--------6-----3--6--|--5---7-6-5-----5----4----7---------|
--2----5--------5-----2--5--|--7-7-----------4----3--------------|
-------------------------0--|--5---------------------------------|
----------------------------|--------------4---3---------------6-|


                                       |--3--|                            
  T X X T T T T T T T T T T T T T T T  T  T  T T T T T T T T T T T T T T  
----8-9-8-6--------------------------------------------------------------|
--9---------9-6------------------------------------6---------------------|
----------------7---6-----5--------------------5-6---5---8-6-5-----4---4-|
------------------8-----7---8---6---5h-6h-7h-8---------8---------6---7---|
----------------------8-------8---8----------------------------7---------|
-------------------------------------------------------------------------|


  |-6-| |---6--| |-3-|                                               
  T T T T   T  T T T T T  T T T T T T T T T T T T T T T T T S S S S  
--------7h-10p-7-8---7----------------------------------------------|
------8------------9---9-10-6-9-7-6---------------------------3-----|
--5-9-------------------------------8-7-5-3-------------------5-5---|
--------------------------------------------4-3---------------4-----|
------------------------------------------------6-5-3---------------|
------------------------------------------------------6-5-4-4-----3-|


  |--3--|                                |---3---|  |--3--|   
  E  E  E   S S  S S  E   E      S S S S E  E    E  E  E  E   
-----3--6--10---13---12------|-------8-5-------/12--------0--|
--3--3--7---6---11---10--11--|--10-8-6-6-6--5--/10-----------|
--3-------------10----9--10--|---9-7-6-6-5--4--/10-----7-----|
--3--------------9----8--11--|--10-9-5-5-4--3---/9-----------|
--------------------------9--|---8-7-------------------------|
--------------9----8---------|-----------4--3---/9-----------|


                                  |-3-|     
  S S S S S S S S E  S  S S S S S S S S E   
-------------------------------------------|
----6-------5--------5p-3-2---3-5-3-5-3-2--|
----7-------------7-------3----------------|
----7-7---6---6---5-------5----------------|
----------------0-----------0--------------|
--7-----0----------------------------------|


                      |-3-|          
  S S S S S S S S S S S S S S S S S  
------------------------------------|
--3-------------------2-3-5-L-3-2---|
----2---2---2---2---4-------------4-|
------5---3---2---0-----------------|
------------------------------------|
------------------------------------|


  |-6-| |-6-|                       |--6--|  |--6-|  
  S S S S S S T T  T  T  T T  T  T  S  S  S  S S  S  
---------------------------9-12-10------------------|
--6-------6-------------10---------10---------------|
--------7---6-9-6s-7-10---------------10------------|
------7----------------------------------11---------|
--------------------------------------------12-8----|
----7--------------------------------------------10-|


        |--3--|      |-----5----|                 
   Q    S  S  S  E   S  S  S  S S    E  E  E  E   
--------------------------------3-|--4--6--8--4--|
--------5h-6p-5p-3p--2h-3h-5h-6---|--4--5--8--4--|
----------------------------------|--5--6--8--5--|
----------------------------------|--3--5--6--3--|
----------------------------------|--------------|
--10------------------------------|--------------|


  |--3--|        |--3--|                                                       
  E  E  E  E  E  S  S  S S S E  E     E  E   E   E  E  E  S S  S  S S S S S S  
--------------3--------------------|--6--8---9--11--8--6------------5-6-8-----|
-----8--6-----4--6h-8p-6-5-6-8--9--|-----6---9------6--6----5h-6h-8-------6-8-|
-----7--------5--------------------|-----6--10------6--6--7-------------------|
-----7--------6--------------------|-----6---8------6--5----------------------|
-----------------------------------|------------------------------------------|
--7--------6-----------------------|------------------------------------------|


                                                       |---3--|   
  S S S S  S S S S S E  E  E  E  E  E      Q    E   E  E   E  E   
--5---------------------8--5--------5--|--10-------12------8-----|
----8-------------------6--6--5--4-----|--10-------10-----10-----|
------7-----------------6--6-----6-----|--10-------10------9-----|
--------8p-7-5----------5--5-----5-----|--10--------9------8-----|
---------------5---0-L-----------------|----------------------9--|
-----------------6---------------------|--------9------8---------|


  |---3--|  |--3--|  |--3--|                          
  E   E  E  E  E  E  E  E  E     Q    Q    H          
-----10--------6--------8-----|--5---------4--------||
------8--------8--------6-----|--6----6----6--------||
------8--------7--------6-----|--6----6----6--------||
------7--------6--------5-----|--5----5----4--------||
--8---------------7--6-----0--|-------0----5--------||
---------7--6-----------------|---------------------||




Duration Legend
---------------
W - whole
H - half
Q - quarter
E - 8th
S - 16th
T - 32nd
X - 64th
. - note dotted
|-n-|  - n-tuplets


Tablature Legend
----------------
L - tied note
x - dead note
g - grace note
(n) - ghost note
> - accentuded note
NH - natural harmonic
AH - artificial harmonic
TH - tapped harmonic
SH - semi harmonic
PH - pitch harmonic
h - hammer on
p - pull off
b - bend
br - bendRelease
pb - preBend
pbr - preBendRelease
brb - bendReleaseBend
\n/ - tremolo bar dip
\n - tremolo bar dive
-/n - tremolo bar Release up
/n\ - tremolo bar inverted dip
/n - tremolo bar return
-\n - tremolo bar Release down
S - shift slide
s - legato slide
/ -  slide into from below or out of upwards
\ -  slide into from above or out of downwards
~ - vibrato
W - wide vibrato
tr - trill
TP - tremolo picking
T - tapping
S - slap
P - pop
< - fade in
^ - brush up
v - brush down
Добавлено: 27.07.2012
Другие материалы по этой песне:

Страница создана 20.03.2012
http://primanota.ru/joe-pass/round-midnight-chords.htm
Привет, Гость.
Предлагаем пройти революционный курс по гитаре.
Подарок от PrimaNota.Ru, забирай!