PrimaNota.ru - самый крупный в мире бесплатный архив песенных текстов, аккордов, табулатур и нот


Joe Pass - I Cant Believe That Youre In Love With Me - таба, видео

Регистрация Запомнить меня
Войти через:  Facebook Google Twitter Vk Yandex Mail.ru

Joe Pass - I Cant Believe That Youre In Love With Me - таба, видео

Печатать
Просмотров: 63
Joe Pass - I Can't Believe That You're In Love With Me
(Transcriber: Jeroen Moons)

(00:00)
--8--5----------10--8---------------|---------------------------------------------------------
--5--7----5--3--8---8--10-----8--7--|--3-4-5-5-3------3-5-3------3-5-5-3---7-5----------------
--7--6----4--3--7---7--9------7--6--|------------4----------3------------2-----7-4------2-----
----------3--2---------8------6--5--|-----------------------------------------------3/4-----4-
------------------------------------|-----------------------------------------------------0---
--0--5----3--2--7---7------0--6--5--|--------------3----------3--------------0----------1-----

(00:14)
----------------------5-7---------------------------------------------------------------------
-----------------3-/7------/7-------------------6p4-----3----------5-3---3--5--3-----7-5------
------2--------4--------------7---------------------3--------5---4-----4----3-----3-------7---
--2-4------4/5-------------0----7--5\4----------------4----------------4----3-----3-----------
--------0------------------------------7-5-4-3-----------------------------------------0------
-----------------------------------------------------------2---3-------3----3-----3-----------

(00:24)
-------------------------------------------------5---------------------------------|------1/2-
---------/7----5-------------------------------7---7--3----------------------------|-3-5------
----4-7--------4--7--4----2----------------4-7-6------5-----5-2--------------------|----------
--7------------6-----6------4--2--4--7-5-7-----5---------0------6p5p3--------------|----------
------------------------0----------------------0----------------------5p3-0-3-4-5--|----------
-------------0-------0-------------------------------------------------------------|----------

(00:34)
----------------2-3--2---------------------------7--8-5---------------------------------------
----4--2--4-----4-5--4--3--2-----2-----------------------6-----------5-----------5------------
----3-----------3-4--3--3--2--1--2-------------------------5------------6-4-4-6--4----6--4----
----2-------------------2--1-----1----2h4p2---1---------------7-6----------------0-------0----
------------------------3--2--------4-------4-------------------------------------------------
--2----------2----3--2-----------2---------------------------------0----------------0-------0-

(00:43)
----------------2--5-7--10--7----------|----------------------------------2-------------------
--------------3---------8---7--3-------|--5-3-----3--5--3-----3--5--3--------5--3--0----------
--6--4------4-----------9---6--5-------|--4-4--4--4--3--3-3---3--2--2--2-----2-----1----------
-----5--2-4-------------7---5--0-------|--4-4--4--3--3----3------------4-----4-----0----------
---------------------------------------|-------------3-----------------------2----------------
-----5----------------------------4-3--|-------3------------3----2-----2-----------0----------

(00:53)
-----------------------------10----14------10--8--------------------------|-------------------
---------------7-10\9-7/8-12-----------10---------10-9p8p6----------------|-------------------
-------------7---------------------------------------------7--------------|---------4-5--6--7-
----7------9-------------------------------0-----------------10-7------0--|---------4-5--6--7-
--9---9/10-----------------------0--------------------------------10-8----|-------------------
--------------------------------------------------------------------------|--0-4-3----5--6--7-

(01:01)
-----------------------------5--9-9-10-11--9---------------------------------------5-7-5-----
--------3--------------5---7----7----------7--10--10-10-10-----7---------------5/7------/7---
--3--5-----5-3--2--4-6---7------7----------7--7---7--7--7------6--6-6-6----4-7-------------7-
--3--3--3--3-3--2--2--------------------------9---9--9--9------5--5-5-5--7-------------------
----------------------------------------------7---------7------------------------------------
--3-----3-------2---------------0----------0----------------6--5------5----------------------

(01:11)
-------------------------------------------------------------------------------9p8p7p6--------
---------------------------------------------7-8-10-7-----------------------------------7-----
----------5-7--------------4----5----7----9-----------7------------6-9-7p6-7--------------7---
--7--5\4------8--5--------------------------------------8------7-9----------------------------
-------------------6-4-5----------------------------------10p9--------------------------------
-------------------------3----5----7----8------------------------------------0----------------

(01:19)
----------------------------------------------------------------------------------------------
--------------------7----8-10-7----5-7-------------------------------------5--5--6\-----------
------------------7------9-11-7----6---7-----------9h10p9p7----------------3--4--5\--4--3-----
--8------------9--------------------------7-5----------------10-7----------5--5--7\--3--2-----
----9--6-7--10--------0----------0------------8/9-----------------10-8-----3--4--5\-----------
-----------------------------------------------------------------------10------------3--2-----

 (01:26)
--1/2-2--2-2--2-2--2-----4-----------------5--------------------------------------------------
--3/4-4--4-4--4-4--4-----4-------------5/9---8-9--8-7-----------------------8p6-----5---------
--2/3-3--3-3--3-3--3-----4------4---4------------------7------------------------5--------7---6
----------------------------4h6---7----------------------9-----8----7----6--------6------6---5
----------------------3--2----------------------------------10---10---10----------------------
---------2----2----2-------------------------------------------------------------------6---5--

(01:35)
---------------7-8--7-6--------------------------------------------------------7--------------
----------7-10---6------5-------7--5-----------6-5---------------6\5---3-5p3---7-7-------9-10-
--------7--------6------5----5--7--5--4-5-4----5-5--7------------5-------------7----7----6-7--
------9----------6------7----4--7--5--5---5-5--8-5--8------------4------------------6----8-9--
--7-9-------------------5-------------------5-------8----3--4-5------5-----------------0-6-7--
---------------------------0-4-------------------------5---------------------0----------------

(01:45)
--------------------------5--7--10--x---------------------------------------------------------
--10--10--10--10----------------10----10p8-7---------------------10---------------------------
--7---7---7---7-----7--6--------9-------------7-------------7/11----11------------------------
--9---9---9---9-----6--5--------0---------------7----------------------12-9------7\6--5-------
--9---10--9---7-----------------------------------10-7-8-9------------------10\9---------1----
------------------0-6--5--------------------------------------------------------------------3-

(01:54)
-----------------------------------------------------------5-7-5------8------5----------------
-----------------------------------7--7--8--8--10-------7------5--6-7-8--7-6-6----6--3--3-----
------------------------------7----6--6--7--7--7-----7--6------5--6-7-8--7-6-5----5--5--5--4--
------------------------------6----5--5--9--9--9-----6--5----------------------------4--4--3--
--3-1-0---------5--2--4------------------------7---------------5--6-7-8--7-6-5--0-5-----------
--------3-2--5-----------1--0---6--5--5--7--7------0-6--5----------------------------4-----3--

(02:04)
------------------------------------------------5----9--12--9-----7--10-7--10-------------5---
--5/7--5-----------------------4-5--5---------7------7------7-----7--------7----------6/7---7-
---------7--4\2----------------5-6-----7-6-7---------7------7-----7--------7-----7----6-------
-----------------5-3h4----2----6-7-----------------------------------------------6----5-------
------------------------5----0-4-5-----------------------------8--7--------7------------------
---------------------------------5-----------------0--------0------------------6----5---------

(02:13)
--5-----------------------------------|------1-2------------2---------------------------------
-----7----3---------------------------|--3-5-------4-2----4------4-2--4-2-----2---------------
-------------5--2---------------------|------------3------3------3----3-2--1--2---------------
--------0---------5--0-3--4-0---------|------------2------2------2----2-1-----4p2---2h4p2---1-
-------------------------------0-4--5-|-------------------------------------------4-------4---
--------------------------------------|----------2------2------2------------------------------

(02:23)
--7--8-5------------------------------------------------5-7--8--7--5--------------------------
----------6----------5--------5-------------------3-/7-------5--7--5----3--5--3-----3--5--3---
------------5----------6-4-6--4--6-4--6-4-------4------------5--6--5----5--4--4--4--4--3--3---
---------------7-6------------0----0----5--2-/5--------------0--5--4----4--4--4--4--4---------
---------------------------------------------------------------------------------------3------
-------------------0---------------0----5-----------------------------4----3-----3------------

(02:32)
-------------------2-----------------------------------2--3-4-5------------------------6------
-----3----5--2-----------5-3-------------------------3----------------------------4-8----7--8-
--3--3----3--3--2-------------4-----2-----------2-4-----------------3----3------5-------------
--3-------------4-----------------4--------4-5--------------------5----3----5/6---------------
---------------------------------------0------------------------------------------------------
--3-----0-2-----2-----0-----------------------------------------------------------------------

(02:42)
----------------------------------------------------------------------------------------------
----------------------------------------------5-7-----------6\5---3---------3h5---6-----------
--8-----------------------------------4--6-7---------4--7------------5---4--------4----4------
-----10\8--6\5---------4--4-5--5-7--7--------------7---------------------------------7--------
----------------8\7--7-------------------------------------5----------------------------------
-----------------------------------------------------------------2------3--------4------------

(02:48)
---------------10-13--12-10--------------------------------------|-----|
--------10-12----------------13-10-------------------6~~~~~~~~---|-T---|
--7/11------------------------------12-10-----------5~~~~~~~~----|-H-E-|
------------------------------------------12.------7~~~~~~~~-----|-E-N-|
--------------------------------------------------5~~~~~~~~------|---D-|
-------------------------------------------------5~~~~~~~~-------|-----|
Добавлено: 22.03.2016
Другие материалы по этой песне:
  • Аккорды и текст

Страница создана 22.03.2016
http://primanota.ru/joe-pass/i-cant-believe-that-youre-in-love-with-me-chords.htm
Привет, Гость.
Предлагаем пройти революционный курс по гитаре.
Подарок от PrimaNota.Ru, забирай!