PrimaNota.ru - самый крупный в мире бесплатный архив песенных текстов, аккордов, табулатур и нот


Joe Pass - Misty - таба, видео

Регистрация Запомнить меня
Войти через:  Facebook Google Twitter Vk Yandex Mail.ru

Joe Pass - Misty - таба, видео

Печатать
Просмотров: 316
Уроки эстрадного вокала в Санкт-Петербурге
                                    Misty                                       


Joe Pass
Spoor 1



      E   E  E  E  Q    E  E      H        E  E  E  E   
E||--15--11--8----------6--8--|--10-----------8--6-----|
B||--13--11--8--9--8----8--7--|--11-----------7--6--8--|
G||--13--10--8--8--7----8--7--|--10-----------7--5--7--|
D||--13--10--6--7--6----6--6--|--10-----------6--5--8--|
A||---------------------------|--10-----------------6--|
E||-------------7--6----------|------------------------|


        |---3---|                                 |--3--|  |--3--|   
  E  E  E   E   E   Q     E.   S     E.   S E  E  E  E  E  E  E  E   
-------------------11------------|-------------------------3--4--5--|
-----6--L---9--13--13----13---12-|--11----8-4--4-----4--6--4--6--7--|
-----6--L--10------12----12---12-|--12----8-5--5-----5--7-----------|
-----6--L--11------11----11---11-|--10---10-5--5--------------------|
---------------------------------|--11---11-------------------------|
-----6--L------------------------|----------4--4--------------------|


  E.  S E.  S E  Q    E     Q    E.  S S S S S  E  E   
--6----------------------|-------4---6-----3-6-10--8--|
--8---8------------------|--8----4-----4-6-----10--9--|
------8-8---4-3--1----3--|--7----4-----3--------9--9--|
------9-9---6-5--3-------|--8----------5--------8--8--|
------8-8----------------|--6----4-----3--------------|
-------------------------|----------------------------|


                                    ^                            
                                                       |--3--|   
   E   E   S  S S S E  S S E  E     E  E  E  S S E  E  E  E  E   
----------------8----------------|-----3--L--L-L----4--L--L--L--|
--11--10---9-11---9-8--6---3-----|---------------------------2--|
---8---L---8--L-L-8-7----8-5--5--|--4--------4---3--L-----3-----|
--10---L--10--L-L-7-6------4-----|--3--L--L----3-2--L--2--------|
---8---L---8--L-L----------------|---------------3--L-----------|
------------------7-6------4-----|--3--L--L---------------------|


        |--3--|                                            
  E  E  E  E  E  Q    S S S S    S E  S Q    Q    S S S S  
-----3--L--1--------------6---|---------------------------|
--1-----------1--0----8-9---8-|--6-4--4-L-----------------|
--1--L--L--L--1--1----7-L-L-7-|--7-3--3-L-----------3-4-5-|
--1--L--L--L--1--0----6-L-L-6-|--5-5--5-L-----------3-4-5-|
------------------------------|--6-6--6-L-----------------|
------------------------------|---------------------3-4-5-|


       |---3--|   |---3---|   |---3---|           |--3--|                  
  Q    E  E   E   E   E   E   E   E   E     E  E  E  E  E  E  S S S S S S  
---------------------11--13--15--13--11--|--L--8--L--6--3-------3-6-5-4-3-|
----------6---9--13--13--13--12--12--11--|--L--8--L--5--3--4--6---4-------|
--6-------6--10--12--13--12--12--12--10--|--L--8--L--6--1--5------5-------|
--6-------6--11--11--11--11--11--11--10--|--L--6--L--5--2--5------3-------|
-----------------------------------------|--------------------------------|
--6--------------------------------------|-----------------4--------------|


                     |--3--|                           
  E  E  S S S S Q    E  E  E     Q    Q     Q    Q     
----------------6----4--L--L--|--3----6----11----8----|
-----7--L-4-L-L-4-------4--L--|--3----4-----9----9----|
-----4--L---4-L-4----------4--|--3----4-----9----8----|
-----6--L-----6-3-------------|--5----3-----8----8----|
------------------------------|--6---------------7----|
------------------------------|-------3-----8---------|


         |--3--|  |--3--|                        |--3--|            
   E  E  E  E  E  E  E  E  E  E     E  E  S E  S E  E  E  S E  T T  
------------6--------------------|----------3--6-4--6--7--9-7--6---|
--11-----9-----8--L-----------6--|--L--4--L------4--------7-7----9-|
---8--8--6-----5--L--8-----------|-----5--L------4--------7-7------|
--10-----7-----6--L-----8--6-----|-----5--L------3--------8-6------|
---8-----6-----5--L--------------|-----6--L------------------------|
---------------------------6-----|---------------------------------|


                                       |---3--|             
  Q    S S S S S S S S S S S S    Q    E  E   E  E  Q.      
---------------6-6-7-7-8-8-7-7-|--6----L--8--11--8---------|
--8----L-----8-6-L-7-L-8-L-7-L-|--6----L--6---9--6--6------|
--7--------8---5-L-6-L-7-L-7-L-|--6----L--6--10--6--6------|
--8------8-----5-L-6-L-7-L-6-L-|--5----L--6---8--6--5------|
--6----------------------------|---------------------------|
-------------------------------|---------------------------|


                   |---3---|   |---3---|                           |--3--|   
  S E  S S  E   S  E   E   E   E   E   E      E.  S S E  S S S S S E  E  E   
--------------------------11--12--14--12--|--11---8-6----------3-4-6--3-----|
----6--8-L--9--11-13--14------13------13--|--11---8-6-8--4-L-6-----4--4--4--|
----6--8-L-10--12-12---L---L--12------12--|--10---8-6----5-L-------4--4--5--|
----6--8-L-11--13-11---L---L--11------11--|--10---6-5----5-L-------3--3--5--|
------------------------------------------|---------------------------------|
------------------------------------------|--------------4-L-------------4--|


                                                   |-3-|        
  Q.     S S S S S S S S S S    E  E   E   E   S S S S S E  E   
-----------3-6-4-3-----------|----------------10-9-8-L-L-7--5--|
--L------6---4-----6-4-------|--3--5---8--10---8-----8-L-5--5--|
--L----------5-------5-5-3---|--5--5---9-------9-------9-5--5--|
--L----------3-------5-----6-|--5--5--10-------7---------5--4--|
-----------------------------|---------------------------------|
--L--------------------------|--5------------------------------|


         |--3--|  |--3--|  |--3--|  |--3--|                        |--3--|   
   S  S  S  S  S  E  E  E  E  E  E  E  E  E     S E  S S S E  Q    E  E  E   
--13-12-11--L--L-10--8--6--3-----------1--1--|-----------3------------4-----|
--11-------11--L--8--8--6--3--4-----3-----3--|--1-1--1-L---1--L----2-----2--|
--12----------12--8--8--5--3-----1--2-----2--|--1-1--1-L-L-1--L----3--L--3--|
--10--------------7--6--5--1--------1-----1--|--1-1--1-L-L-1--L----2--L--2--|
---------------------------------------------|------------------------------|
---------------------------------------------|------------------------------|


         |--3--|  |--3--|  |--3--|          |--3--|              
  S E  S E  E  E  E  E  E  E  E  E     Q    E  E  E  E  Q    E   
------------3--------------3--6--7--|--8----6-------------------|
--1-1--1-L-----1--0-----3-----8-----|--6----6--8----------------|
--1-1--1-L-----1--1-----4-----7-----|--5----5-----8--5--5-------|
--1-1--1-L-----1--0-----6-----6-----|--5----5--------6--6----4--|
------------------------------------|---------------------------|
------------------------------------|----------------6--6-------|


  Q    S S S S S  S  S  S  S  S  S  S     S  E  S E.  S S E  S S E.   
--------------------------------------|-----------------3-4--6-L-7---|
-----------4-6-8--9-11-13-15-13-16-13-|--11--8--4-L---6-4----4-L-5---|
--5----3-5---6-8-10-12-12-12----12----|--12--8--5-L-----5----5-L-5---|
--5----------6-8-12-13-12-12----12----|--13-10--5-L-----6----3-L-4---|
--6-----------------------------------|--11-11-----------------------|
--------------------------------------|---------4-L------------------|


  S E  S E.  S S E  S S E.     Q     E   E   E  E  E  E   
--6-3----------3-4--6-L-7---|--6----13--11--10--8--6--4--|
--4----4-L---6-4----4-L-----|--6----11-------9-----5--2--|
--4----4-L-----4----4-L-----|--7----10-------9-----6--3--|
--3----3-L-----3----3-L-----|--5------------10-----5--2--|
----------------------------|-------10-------------------|
----------------------------|----------------------------|


       |--3--|  |--3--|                        |-3-|        
  Q    E  E  E  E  E  E  E  E     H        S S S S S E  E   
--3-------------------------8--|--6--------L-------5-8--6--|
--1----1--3--4--8--6-----3-----|--6--------L-----6---6--6--|
--1----1--3--5--7-----8--5-----|--6--------L---6-----6--6--|
--1----1--3--6--6--------6-----|--5--------L-8-------5--5--|
-------------------------------|---------------------------|
-------------------------------|---------------------------|


                           |---3--|  |--3--|  |--3--|   |---3--|   
  Q.     S S Q    Q        E  E   E  E  E  E  E  E  E   E  E   E   
--4--------------------|--11--L--11-------------------------------|
--4------4-3-2----1----|---9--L---9--4--L--4--6--L--6---8--L---8--|
--3------L-L-3----3----|---8--L---8--5--L--5--7--L--7---8--L---8--|
--2------L-L-2----2----|-------------6--L--6--8--L--8--10--L--10--|
-----------------------|---8--L---8---------------------8--L---8--|
-----------------------|------------------------------------------|


  E  E  E  E  Q    E  E     Q     Q     Q     Q       Q    Q    E  E  Q     
-----------6--L----------|-------12----11----10----|--9----8----7--L--6----|
--9--L--8--8--L----8--4--|--L----13----12----11----|--9----8----7--L--8----|
--6--L--6--7--L----7--5--|--L----12----11----10----|--9----8----7--L--7----|
--7--L--7--6--L----6--5--|--L----------------------|------------------6----|
-----6--L-------------6--|--L----12----11----10----|--9----8----7--L-------|
-------------------6-----|-------------------------|---------------0--L----|


  W                  
--6----------------||
--6----------------||
--7----------------||
--8----------------||
--6----------------||
-------------------||




Duration Legend
---------------
W - whole
H - half
Q - quarter
E - 8th
S - 16th
T - 32nd
X - 64th
. - note dotted
|-n-|  - n-tuplets


Tablature Legend
----------------
L - tied note
x - dead note
g - grace note
(n) - ghost note
> - accentuded note
NH - natural harmonic
AH - artificial harmonic
TH - tapped harmonic
SH - semi harmonic
PH - pitch harmonic
h - hammer on
p - pull off
b - bend
br - bendRelease
pb - preBend
pbr - preBendRelease
brb - bendReleaseBend
\n/ - tremolo bar dip
\n - tremolo bar dive
-/n - tremolo bar Release up
/n\ - tremolo bar inverted dip
/n - tremolo bar return
-\n - tremolo bar Release down
S - shift slide
s - legato slide
/ -  slide into from below or out of upwards
\ -  slide into from above or out of downwards
~ - vibrato
W - wide vibrato
tr - trill
TP - tremolo picking
T - tapping
S - slap
P - pop
< - fade in
^ - brush up
v - brush down
Добавлено: 24.06.2012
Другие материалы по этой песне:

Страница создана 16.05.2012
http://primanota.ru/joe-pass/misty-chords.htm
Привет, Гость.
Предлагаем пройти революционный курс по гитаре.
Подарок от PrimaNota.Ru, забирай!