PrimaNota.ru - самый крупный в мире бесплатный архив песенных текстов, аккордов, табулатур и нот


Joe Pass - Beautiful Love - таба, видео

Регистрация Запомнить меня
Войти через:  Facebook Google Twitter Vk Yandex Mail.ru

Joe Pass - Beautiful Love - таба, видео

Печатать
Просмотров: 276
Уроки эстрадного вокала в Санкт-Петербурге
Авторы музыки: Egbert Van Alstyne, Victor Young, Wayne King
Авторы текста: Haven Gillespie
e|-------------------------------------0------------------------------------------|
B|---0-5--------3-1----------------3----3----1-3-5-8---------8------6------6------|
G|-2---------2--------1---4-2-4-5----5---5---------------5-------5------5------5--|
D|---------3--------2--2---------2---------------------6---6---6---6--6---6--6---6|
A|-------2-------------------------------------------5----------------------------|
E|--------------------------------------------------------------------------------|

e|---------------------0---------------------5-8/12--0-2-4-7---5-----0-3--1---|
B|---5---------3---3-----0-------0-1-3-5h6h8----------------------------------|
G|-----4---------5-----------1-2-----------------------------7---5.-2---3---2-|
D|-------6-----------------2--------------------------------------------------|
A|---------7-----------3------------------------------------------------------|
E|---4------------------------------------------------------------------------|

e|-----------------0-----------------------------5-7-8/12-12----10---0---8---------|
B|------0-----0-1-------3-1----0---------0---------------------------8------6------|
G|------2---2--------2-----2-----2-0-2-0--2-------------------9------9------0------|
D|------3--------------3----2-1------------3-2----------------9-------------7------|
A|------2--------------------------------------------------------------------------|
E|-----------------1---------------------------------------------------------------|

e|--7-5-7-8---------8-10-12/15-15--------------13-12-----------10-8-10-12----|
B|-----------5--------------------12-----------13-12--10-9-------------------|
G|-----------5--------------------12-----------13-12--10-9-------------------|
D|--------------------------------12-14-13-12---------10-9-------------------|
A|--------0------------------------------------------------------------------|
E|----------------------------------------------------------3----------------|

e|--8-----------------------------0-2-4-7--5-----0--3--1---0--0---------------|
B|--8---8----8--------8--------------------------2---------0----0-------------|
G|--9---9h10--9---------9----------------7---5---3---3--2--2------2-----------|
D|--8----------10-6/7-----10-7-6-----------------2---------3--------3---------|
A|--10-------------------------------------------0---------2------------------|
E|--8--------------------------0----------------------------------------------|

e|---------------------------------------------------------------------------|
B|----0-1-2-3-4-5-----5------5-------5-------3-------3-------3------1--------|
G|--2--------------2------2------2-------2-------2-------2------2------1-----|
D|---------------3--3---3---3--3---3---3---3---3---3---3---3--3---3--2--2----|
A|---------------------------------------------------------------------------|
E|---------------------------------------------------------------------------|

e|---------------------------------------------------------------------------|
B|-1-------1-----------------------------------------------------------------|
G|-----1------1---4-2-4--2~--------------------------------------------------|
D|---2---2--2--2---------2~--------------------------------------------------|
A|---------------------------------------------------------------------------|
E|---------------------------------------------------------------------------|

Notes: I pieced this together by different sources, mostly a version on youtube
by Peter De Waele, so you can check that out, if you want a feel for how it's played :)
Добавлено: 06.08.2015
Другие материалы по этой песне:
  • Аккорды и текст

Страница создана 06.08.2015
http://primanota.ru/joe-pass/beautiful-love-chords.htm
Привет, Гость.
Предлагаем пройти революционный курс по гитаре.
Подарок от PrimaNota.Ru, забирай!