PrimaNota.ru - самый крупный в мире бесплатный архив песенных текстов, аккордов, табулатур и нот


Joe Pass - Oleo - таба, видео

Регистрация Запомнить меня
Войти через:  Facebook Google Twitter Vk Yandex Mail.ru

Joe Pass - Oleo - таба, видео

Печатать
Просмотров: 151



Date: Mon, 13 Feb 2006 19:34:34 +0000
From: Matthew Hart 
Subject: p/pass_joe/oleo.tab

Song: Oleo
Artist: Joe Pass (with NHOP)
Album: Chops
Tabbed by: Matthew Hart
URL: http://mambazo.langfordtavern.com

Part A
Note: Equals means sustain, slash is slide.

  1 . . 2 . . 3 . . 4 . .   1 . . 2 . . 3 . . 4 . .
|-------------------------|-------------------------|
|-------------------------|-------------------------|
|-------------5=====------|-------7========---8---7-|
|-----8-----5-----------8-|-----5-------------------|
|-------------------------|-------------------------|
|-------------------------|-------------------------|


  1 . . 2 . . 3 . . 4 . .   1 . . 2 . . 3 . . 4 . .
|-------------------------|-------------------------|
|-------------------------|-------------------------|
|-------------7---8-7---5-|-------------------------|
|-----8-----5-------------|-8---5-6---7-----8-----5-|
|-------------------------|-------------------------|
|-------------------------|-------------------------|


  1 . . 2 . . 3 . . 4 . .   1 . . 2 . . 3 . . 4 . .
|-------------------------|-------------------------|
|-------------------------|-------------------------|
|-5=====------------------|-------------8---7-----5-|
|-----------8-----5-8====-|-----8-----5-------8-----|
|-------------------------|-------------------------|
|-------------------------|-------------------------|


  1 . . 2 . . 3 . . 4 . .   1 . . 2 . . 3 . . 4 . .
|-------------------------|-------------------------|
|-------------------------|-------------------------|
|-------------------------|/7====-----5-7---5-------|
|-----------5-----8-----5-|-------------------7-----|
|-------------------------|-----------------------8-|
|-------------------------|-------------------------|


  1 . . 2 . . 3 . . 4 . .   1 . . 2 . . 3 . . 4 . .
|-------------------------|-------------------------|
|-------------------------|-------------------------|
|-------------5=====------|-------7========---8---7-|
|-----8-----5-----------8-|-----5-------------------|
|-------------------------|-------------------------|
|-------------------------|-------------------------|


  1 . . 2 . . 3 . . 4 . .   1 . . 2 . . 3 . . 4 . .
|-------------------------|-------------------------|
|-------------------------|-------------------------|
|-------------7---8-7---5-|-------------------------|
|-----8-----5-------------|-8---5-6---7-----8-----5-|
|-------------------------|-------------------------|
|-------------------------|-------------------------|


  1 . . 2 . . 3 . . 4 . .   1 . . 2 . . 3 . . 4 . .
|-------------------------|-------------------------|
|-------------------------|-------------------------|
|-5=====------------------|-------------8---7-----5-|
|-----------8-----5-8====-|-----8-----5-------8-----|
|-------------------------|-------------------------|
|-------------------------|-------------------------|


  1 . . 2 . . 3 . . 4 . .   1 . . 2 . . 3 . . 4 . .
|-------------------------|-------------------------|
|-------------------------|-------------------------|
|-------------------------|-6-----5-----------------|
|-----------5-----8-----5-|-----8-----8-------------|
|-------------------------|-------------------------|
|-------------------------|-------------------------|


Part B
Note: Comma is straight feel, fullstops are triplets.

  1  ,  2  ,  3  ,  4  ,    1  ,  2  ,  3  ,  4  ,
|-------------------------|-------------------------|
|-------------------------|-------------------------|
|----------------------9--|-------7-----------------|
|----------------7--10----|-8--9-----9--10----------|
|-------10-8--9-----------|-------------------------|
|-------------------------|-------------------------|


  1  ,  2 . . 3  ,  4  ,    1  ,  2  ,  3 .  . 4  ,
|-------------------------|--------------------------|
|-------------------------|----------8--9-10-9-8--10-|
|-------7-8-9-10-8--7-----|----7--10-----------------|
|----------------------10-|-9------------------------|
|-------------------------|--------------------------|
|-------------------------|--------------------------|


  1  ,  2  ,  3  ,  4  ,    1  ,  2  ,  3  ,  4  ,
|-------------------------|-------------------------|
|----------8-----------10-|-7-----7--10-8-----------|
|-9-----9-----10-7--10----|----8-----------9--------|
|----10-------------------|-------------------10-8--|
|-------------------------|-------------------------|
|-------------------------|-------------------------|


  1  ,  2  ,  3  .  .  4 . .   1 . .  2 . . 3 . . 4 . .
|-------------10-11-10-9---10|--------------------------|
|-------8--11----------------|-11-----------------------|
|-10-8-----------------------|-----10-9---7-8=====------|
|----------------------------|--------------------------|
|----------------------------|--------------------------|
|----------------------------|--------------------------|

Part C


  1 . . 2 . . 3 . . 4 . .   1 . . 2 . . 3 . . 4 . .
|-------------------------|-------------------------|
|-------------------------|-------------------------|
|-------------5=====------|-------7========---8---7-|
|-----8-----5-----------8-|-----5-------------------|
|-------------------------|-------------------------|
|-------------------------|-------------------------|


  1 . . 2 . . 3 . . 4 . .   1 . . 2 . . 3 . . 4 . .
|-------------------------|-------------------------|
|-------------------------|-------------------------|
|-------------7---8-7---5-|-------------------------|
|-----8-----5-------------|-8---5-6---7-----8-----5-|
|-------------------------|-------------------------|
|-------------------------|-------------------------|


  1 . . 2 . . 3 . . 4 . .   1 . . 2 . . 3 . . 4 . .
|-------------------------|-------------------------|
|-------------------------|-------------------------|
|-5=====------------------|-------------8---7-----5-|
|-----------8-----5-8====-|-----8-----5-------8-----|
|-------------------------|-------------------------|
|-------------------------|-------------------------|


  1 . . 2 . . 3 . . 4 . .   1 . . 2 . . 3 . . 4 . .
|-------------------------|-------------------------|
|-------------------------|-------------------------|
|-------------------------|-6-----5-----------------|
|-----------5-----8-----5-|-----8-----8-------------|
|-------------------------|-------------------------|
|-------------------------|-------------------------|


Добавлено: 30.10.2013
Другие материалы по этой песне:
  • Аккорды и текст

Страница создана 30.10.2013
http://primanota.ru/joe-pass/oleo-chords.htm
Привет, Гость.
Предлагаем пройти революционный курс по гитаре.
Подарок от PrimaNota.Ru, забирай!