PrimaNota.ru - самый крупный в мире бесплатный архив песенных текстов, аккордов, табулатур и нот


Joe Pass - Blue Bossa - таба, видео

Регистрация Запомнить меня
Войти через:  Facebook Google Twitter Vk Yandex Mail.ru

Joe Pass - Blue Bossa - таба, видео

Печатать
Просмотров: 152
Авторы музыки: Kenny Dorham

Joe Pass & J.J. Johnson - Blue Bossa

Tab by Aldo Alain


|----------------------------------10-11h13p11p10-------------|
|----16-------15-------13----12h13----------------13-12-------|
|-------------------------------------------------------------|
|-------17-------15-------------------------------------------|
|-15-------13-------11----10----------------------------------|
|-------------------------------------------------------------|

|----------------------------------10---13p11p10--------------|
|----16-------15-------13----12h13---------------13-12--------|
|-------------------------------------------------------------|
|-------17-------15-------------------------------------------|
|-15-------13-------11----10----------------------------------|
|-------------------------------------------------------------|

|---------------------------------------------6---------------|
|------------------------3-4h6p4p3----------------------------|
|---8------7-----5---4h5-----------5-4-5------3---------------|
|--------------------------------------5------3---------------|
|-----10-----8------------------------------------------------|
|-8------6-----4---3------------------------------------------|

|---x-3-------------------------------------------------------|
|-4-x-4--x-4---x-4--4--6-x--6--x-6--x-6-----------------------|
|-3-x-3--x-3---x-3--3--5-x--5--x-5--x-5--5-3-x-3----3---3-3---|
|-5-x----x-5---x-5--5--6-x--6--x-6--x-6--4-3-x-3----3---3-3---|
|-3---------3-------3--5-----5----5----5----------------------|
|------3----------3----------------------4-3----3-6-6-3-6-6---|

|-------------------------------------------------------------|
|-4-x-4--x-4---x-4---8-7-x--9--7-6-x-6---4-x-4---x-4--x-4-----|
|-3-x-3--x-3---x-3---7-6-x--6--6-5-x-5-6-3-x-3---x-6--x-6-----|
|-5-x-5--x-5---x-5---9-8-x--8--8-6-x-6---3-x-3---x-3--x-3-----|
|-3----------3-------7-6-----6---------4-4-----4----4----4----|
|------------------3-----------6-4----------------------------|

|----6---------4--------3-------------6-----------------------|
|-6-------6---3--x-4--3-4---3-4-6-4-3-3-----------------------|
|-5-------5---4--x-4--3-3---3-4-4-4-3-3-----------------------|
|-6-------6---3--x-3--3-----3-3-3-3-3-3-----------------------|
|--5---5------------------1-----------------------------------|
|-----------4-3-----------------------------------------------|

|-----3---------3----3----1-------3---------------------------|
|-4-x-4--x--4-x-4--x-1--x-1-----------7--6-8------------------|
|-3-x-3--x--2-x-2--x-1--x-1---5-4-----6--5----5-3--3---3------|
|-5-x----x--5-x----x--3-x---3-4-3-----8--7----4-3--3---3------|
|-3----3----3----3------------------6----5--------------------|
|-----------------------------4-3------------4--3----6--------|

|--------------------------------4----------------------------|
|-4-x-4--x-4--x-4--8-9-x-9---7-6-6---6--4-x-4--x-4--x-4---4---|
|-3-x-3--x-3--x-3--7-6-x-6---6-5-5---5--3-x-3--x-3--x-3---3---|
|-5-x-5--x-5--x-5--9-8-x-8---8-6-----6--3-x-3--x-3--x-3---3---|
|-3---------3------7-6-----6------------4---------4-------4---|
|----------------3-----------6-4---4---------4----------4-----|

|------------------------------11----11-----------------------|
|-6-6-6-6-3-3-3-3-3-3-3-3-3-11-11-11-11-11---4----------------|
|-5-5-5-5-4-4-4-4-4-4-4-4-4-10-10-10-10-10---3----------------|
|-6-6-6-6-4-4-4-4-4-5-5-5-5------------------5----------------|
|-5-5-5-5-----------3-3-3-3-10----10----10---3----------------|
|---------3-3-3-3-3-------------------------------------------|

|------------------------------------------------8-11-15-16-13|
|---4---4-4-------------------------8-6p5-6-9-11--------------|
|-5---5-----5---3-3-------------5p8-------------------12-13-10|
|-------------5-----5-4-2/3-5p6-------------------------------|
|-------------------------------------------------------------|
|-------------------------------------------------------------|

|-15-11-13-10-11-----10-8-------------------------------------|
|-----------------12------11p8--------------------------------|
|-12--8-10--7--8------7--------11p10p8----10----8------8------|
|-----------------9--------------------10----10------9--------|
|-------------------------------------------------10----------|
|-------------------------------------------------------------|

|-------------------------------------------------------------|
|-------------------------------------------------------------|
|-------------10/7-----8-5-6-----------------------------6/10-|
|-10-8-------------8---------8-6-----------------------6------|
|------10-8-9--------9-----------9-----8-----6-4--7p8---------|
|----------------------------------6-9---4-8------------------|

|---9-12-10----10-----6-------------------6-------------------|
|-9---------13----13----9--8--------------------4-------------|
|--------11----11----10------10-8-7-6-5-4-------4-------------|
|--------------------------9--9-8-7-6-5-4-------3-------------|
|-----------------------------8-------------3-4---------------|
|-------------------------------8-7-6-5-4---------------------|

|-------------------------------------------------------------|
|-8--8--8-8--8--8--8-8--8--8--8--8-8--8--8--8-8--8------------|
|-8--8--8-8--8--8--8-8--8--8--8--8-8--8--8--8-8--8------------|
|-8--8--8-8--7--7--7-7--7--6--6--6-6--6--6--6-6--6------------|
|-------------------------------------------------------------|
|-8--8--8-8--8--8--8-8--8--8--8--8-8--8--8--8-8--8------------|

|-----------------------------------------8-------------------|
|-11--11--11-11--11--11--11-11--11--8-7/8---8\6p4---6---3-4---|
|-10--10--10-10--10--10--10-10--10--8-------------5---5-------|
|-10--10--10-10---9---9---9--9---9--8-------------------------|
|-------------------------------------------------------------|
|-10--10--10-10--10--10--10-10--10--8-------------------------|

|------------------------4-5-7p5p4-----------------6---11p9---|
|----------6\4-----4-6/7-----------7-5---------------9--------|
|-5------------3-----------------------5-------8-6------------|
|---5--3-4-------4-----------------------7-5-6----------------|
|-------------------------------------------------------------|
|-------------------------------------------------------------|

|----8------------------------------------------------3-------|
|-10---11p9--------------------11---8---6---4---3-4-6---4-3---|
|-----------10-----------------10---7---5---4---4-3-----------|
|--------------11-10-8---------11---8---6---3---3-5-----------|
|----------------------11-9-10----7-----------2---3-----------|
|-------------------------------------4---3-------------------|

|-------------------------------------------------------------|
|-----------4-x-4--x-4--x-4---4-6-x-6--x-6--6--6--3-x---------|
|-5-3-1-0---3-x-3--x-3--x-3---3-5-x-5--x-5--6--5--4-x-4---4---|
|---------3-5-x-5--x-5--x-5---5-6-x-6--x-6--6--6--3-x-3---3---|
|---1-----2-3---------3-------3-5----5----5--5--5-------------|
|---------------------------3---------------------3-----3-----|

|-6-6---6-----------------------------------------------------|
|-6-6---6---8-x-8---x-8---x-8-----9-x-9---7-6--6--6-6---------|
|-4-4---4---8-x-8---x-8---x-8-----6-x-6---6-5--5--5-5---------|
|---------5-8-x-8---x-7---x-7-----8-x-8---8-6--6--6-6---------|
|-----5-------------------------7-6-----6---------------------|
|-----------8-----8-----8-----8-----------6-4--4--4-4---------|

|---------------------------------6--6-3-----3-6--------------|
|-4--x-4--x-4--x-4--4-6-x-6-------6--6-4-----4-6-----3--------|
|-3--x-3--x-3--x-3--3-5-x-5---5-4-0--4-3-5---3-4-----4--------|
|-3--x-3--x-3--x-3--3-6-x-6---4-3------------5-------3--------|
|--4---------4------4-5-----5----------3---3---5-------2------|
|-------4---------4-----------4-3---3------------4-3----------|

|----------------------------------------------------------6--|
|-4-x-4--x-4--4-4---4/6-6-x-6-6-x-6-6-x-6-6-----3---3------6--|
|-3-x-3--x-2--0-2---3/5-5-x-5-5-x-5-5-x-5-5-----4---4------4--|
|-5-x-5--x-5--5-5---4/6-6-x-6-6-x-6-6-x-6-6-----3---3--6-5----|
|-3----3----3-----3-3/5-5-x-5-5-x-5-5-x-5-5-------------------|
|-------------------------------------------4-3---3-----------|

|---6---3--------6-6---6--------------------------------------|
|---6---4-x-4----6-6---6---3--x--2--x--2-x--------x-6---------|
|---4---3-x-3----4-4---4---2--x--1--x--0-x--6-5-5-x-5---------|
|---------x-5--4-5-5-------3--x--2--x--1-x--4-4-6-x-6---------|
|-5---4-3----3-------5---4-2-----1-----0----6-6-4----4--------|
|-------------------------------------------4-4--------4------|

|---------------------4--4--3-----3----6-----3----------------|
|-4-x-4----6-x-6------6--4--4-x-4-4--6-------4----------------|
|-3-x-6----5-x-5--5-4-4--4--3-x-3-3--4-------4----------------|
|-3-x-3----6-x-6--4-3-5--5----x-5----5------------------------|
|-4----4-4-5----5-----------3----3----------------------------|
|-----------------4-3--------------------4-3------------------|

|-------------------------------------------------------------|
|-------------------------------------------------------------|
|---------------------------------------------------------5---|
|------------3--4-4/5-------------------------------------6---|
|-4-3--5--6------------6--3--------1-----3-----5--3--6--5-----|
|----------------------------3--1-----4-----6---------------8-|

|---------------------------------6----------------------4----|
|---------3-------4-----------4---6---9-----11-----------6----|
|---------4---4---3-----------3---4---6-----10----13-----5----|
|---------3---3---------3-4/5---6-5---8-----------13----------|
|---------------1-3-5-6-------------7-6-8-9----10-11-------5--|
|-6--4--3---2----------------------------------------5-4------|

|--------------------------------6-6-6-6--8---8---8---8-6-6---|
|-4--x-4--4--2---2---2--6-6-6-6--6-6-6-6--8---8---8---8-6-6---|
|-3--x-3--3--3---3---3--5-5-5-5--4-4-4-4--8---8---8---8-4-4---|
|-3--x-3--3--3---3---3--6-6-6-6--5-5-5-5----------------5-5---|
|-4--x-------4-----4----5-5-5-5-------------------------------|
|-------4------4--------------------------8-6---5---4---------|

|-------------------------------------------------------------|
|-4-x-4-4-x-4-4-4-4-4-x-3-3-x-1-1-x-3-3-x-1-1-x-6-6-x-6-6-----|
|-3-x-3-3-x-2-2-0-2-2-x-1-1-x-1-1-x-1-1-x-1-1-x-5-5-x-5-5-----|
|-5-x-5-5-x-5-5-5-5-5-x-1-1-x-1-1-x-1-1-x-1-1-x-6-6-x-6-6-----|
|-3-----3-----3---3-------3-----3-----3-----3-----5-----5-----|
|-------------------------------------------------------------|

|------------3---3---------------------------------4----------|
|----------4-4-x-4--x-4------4-6-4-3-2-x----x----x-6----4-x-4-|
|-3---x-4----3-x-3--x-3----5---------3-x-3--x-6--x-5----3-x-3-|
|-3---x-3------x----x-5--5-----------4-x-4--x-5--x------3-x-3-|
|-----x------3---------3------------------------------5-4-----|
|---6----3--------------------------------2----4----4--------4|

|--------------4-3--------------------------------------------|
|-x-2--x-2---2-6---6---------------------------6-7p6p4--------|
|-x-3--x-3---3-5-----5-----3---------7-4-5-7-8---------7-5----|
|-x-3--x-3---3-6-------6-3---6-5-3-------------------------8-6|
|----4-------4---------------------6--------------------------|
|----------4--------------------------------------------------|

|---------------------------------------------------------6---|
|-------4--4-4--4--4--4-4---6-x-6--6-6-7-6-12-11--9---8---6---|
|-------3--3-3--3--3--3-3---5-x-5--5-5-5-5--9--8--8---5---4---|
|-5-----5--5-5--5--5--5-5---6-x-6--6-6-6-6-10-10-10---6-------|
|---8-6-3--3-3--3--3--3-3---5----5---5---5--9--8----8---5-----|
|-------------------------3---------------------------------4-|

|-4-3---------------------------------------------------------|
|-6-4-----3-4-6-7p6p4-6-3-4-----------------------4-x-4--x-4--|
|-4-3---5-------------------5---------6---5---5---3-x-3--x-6--|
|-----5-----------------------5---4---4---4---4---3-x-3--x-3--|
|---3---------------------------6---------------5-4---------4-|
|-----------------------------------4---4---4----------4------|

|---------------------4---------------------------------------|
|-x-4-----6---6-------4--------16-------15-------13----12-----|
|-x-6---6-5---5---5-4-4---------------------------------------|
|-x-3---3-6---6---6-3-3-----------17-------15-------------12--|
|-------4-5-----5---------3/15-------13-------11----10--------|
|-----4-------------3---3-------------------------------------|

|-------------------------------------------------------------|
|---9----9----8----8---7----7-----6---6---4---4--3-3--3-3-----|
|-----------------------------------5---5---5----2-2--2-2-----|
|-----10---10---10---10--10---10-----------------1-1--1-1-----|
|-8-----------------------------------------------------------|
|-------------------------------------------------------------|

|-------------------------------------------------------------|
|-------1--1-1-----3-3----------------------------------------|
|-------2--2-2-----2-2----------------------------------------|
|-3-2-1----1-1-----1-1----------------------------------------|
|------------------1-3----------------------------------------|
|-------------------------------------------------------------|
Добавлено: 09.07.2013
Другие материалы по этой песне:

Страница создана 22.05.2012
http://primanota.ru/joe-pass/blue-bossa-chords.htm
Привет, Гость.
Предлагаем пройти революционный курс по гитаре.
Подарок от PrimaNota.Ru, забирай!