PrimaNota.ru - самый крупный в мире бесплатный архив песенных текстов, аккордов, табулатур и нот


Joe Pass - Paco De Lucia - таба, видео

Регистрация Запомнить меня
Войти через:  Facebook Google Twitter Vk Yandex Mail.ru

Joe Pass - Paco De Lucia - таба, видео

Печатать
Просмотров: 120
Joe Pass - Paco De Lucia
Transcriber: Jeroen Moons



Intro

-----5--------4-------------------4--7p5p4-------|------|-------4h5/7--5--4-------------
-----------------------7-----6/7------------7p6--|------|--7~~---------------7--5-------
--------6--------4-------------------------------|--3x--|--6~~---------------------7\6--
--4----------------------------------------------|------|--7~~--------------------------
-----------7--------5-----4----------------------|------|--5~~--------------------------
-------------------------------------------------|------|-------------------------------


---------------|------------------------------------------------------------------------
---------------|--2--2-----2-----5--3--2------------------------------------------------
4--------------|--2--2-----2-----2-----2---4--4~-----4-----4--4-----4-----4--4-----4----
---7-----------|--4--4-----4---------------3--3~-----3-----3--3-----3-----3--3-----4----
------8\7--5---|--------4----------------------------------4--------------4-------------
---------------|--2-----------2------------4------4-----4--------4-----4--------4-----4-


-------------------------------------------------------------------3--2-----------------
--------3--0--2--2-----2-----2-----2-----2~---5--5--------------2--2--2--5--5--3--2--5--
--4-----4--4--2--2-----2-----2-----2-----2~---4--4--------4-----3--3--3-----2-----2-----
--3-----3--3--4--4-----3-----2----------------5--5-----5-----5--2-----------4-----4-----
--4--4-----------------------------6-----5~---4-----4-----------------------2-----2-----
--------------2-----2-----2-----2-----2-------------------------2-----2-----------------



----------------------------------------------1--0--------------------------------------------
--3.--------2p0-------------3--------3-----3--3-----3------------------5----------------------
--2.-----3-------2-------1--1-----2-----2--1-----------6--6---------6-----7--6--4--4-------4--
--4.--4-------------4h5--------------------------------6--6---------7-----------4--4-----4---4
--2.---------------------------2-----------------------0-----0~~/5----------------------------
-------------------------0-----------------0------------------------------------4-----4-------


                         
--------------------------|------------------------|
-----------2--------------|--5---------------------|
--4-----4--4--4--2--1-----|-----7------------------|
--4-----3--3--------0--4--|--------7---------------|
--------4--------------4--|----------8\7--5\4------|
-----4--------------1--2--|--------------------7---|



------------------------------------------------------------------------
--2--2-----2-----5--3--2------------------------------------------------
--2--2-----2-----2-----2---4--4~-----4-----4--4-----4-----4--4-----4----
--4--4-----4---------------3--3~-----3-----3--3-----3-----3--3-----4----
--------4----------------------------------4--------------4-------------
--2-----------2------------4------4-----4--------4-----4--------4-----4-



----------------------------------------------------------------------2-----------------
--------3--0--2--2-----2-----2-----2-----2~---5--5--------------2--4-----5--5--3--2--5--
--4-----4--4--2--2-----2-----2-----2-----2~---4--4--------4-----3--3--------2-----2-----
--3-----3--3--4--4-----3-----2----------------5--5-----5-----5--2-----------4-----4-----
--4--4-----------------------------6-----5~---4-----4-----------------------2-----2-----
--------------2-----2-----2-----2-----2-------------------------2-----2-----------------



----------------------------------------------1--0--------------------------------------------
--3.--------2p0-------------3--------3-----3--3-----3------------------5----------------------
--2.--0h1h2------2-------1--1-----2-----2--1-----------6--6---------6-----7--6--4--4-------4--
--4.----------------4h5--------------------------------6--6---------7-----------4--4-----4---4
--2.---------------------------2-----------------------0-----0~~/5----------------------------
-------------------------0-----------------0------------------------------------4-----4-------



---------------------4--2~~--|-----------|-----------------------5-----4----------------
-----2---------------3--2~~--|-----------|--7--7--------------4--4--------7--7--5--5.---
--4--4--4--2--1------1--2~~--|--3 times--|--6--6--------6-----5--5-----------4-----4.--8
--3-----------0--4~--3--4~~--|---intro---|--7--7-----7-----7--4--------------6-----6.---
--4--------------4~----------|-----------|--6-----6--------------------------4-----4.---
--------------1--2~----------|-----------|--------------------4-----4-------------------



--11--9-------------------------------------------------5-----4-------------------------
---------9-------------------------7--7--------------4--4--------7--7--5--5.---------4\2
------------9\8--------------------6--6--------6-----5--5-----------4-----4.--3h4h5-----
-----------------11----------------7--7-----7-----7--4--------------6-----6.------------
---------------------11------------6-----6--------------------------4-----4.------------
-------------------------12\11--9--------------------4-----4----------------------------



-----------|-------------------------7-----6---------------13--11-----------------------
-----------|--8/9--9--------------6--6--------9--9--7--7.----------11-------------------
1----------|--7/8--8--------8-----7--7-----------6-----6.--------------11\10------------
---2\1-----|--8/9--9-----9-----9--6--------------8-----8.---------------------13--------
--------4--|--7/8-----8--------------------------6-----6.-------------------------13----
-----------|----------------------6-----6-----------------------------------------------



----------------------------------7-----6--------6.-----4.-----4.-----2.-----2.-----0---
-------------9--9-----------------6--------9--8------7------6------5------4------3-----2
-------------8--8--------8-----7--7-----------6------5------4------3------2------1-----0
-------------9--9-----9-----9--6-------------------------------------------------------2
-------------8-----8--------------------------6-------------4-------------2------------0
--14\13--11--------------------6-----6---------------4-------------2-------------0------



--5.--------------------------------------------------------|
--------------------5--7--9p7p5--5--------------------------|
----------------7.------------------7\6--4------------------|
-------7--7--7--4.--------------------------7---------------|
----------------5.-----------------------------8\7--5\4-----|
---------------------------------------------------------7--|



------------------------------------------------------------------------
--2--2-----2-----5--3--2------------------------------------------------
--2--2-----2-----2-----2---4--4~-----4-----4--4-----4-----4--4-----4----
--4--4-----4---------------3--3~-----3-----3--3-----3-----4--4-----4----
--------4----------------------------------4----------------------------
--2-----------2------------4------4-----4--------4-----4--4-----4-----4-



-------------------------------------------------------------------3--2-----------------
--------3--0--2--2-----2-----2-----2-----2~---5--5--------------2--2--2--5--5--3--2--5--
--4-----4--4--2--2-----2-----2-----2-----2~---4--4--------4-----3--3--3-----2-----2-----
--3-----3--3--4--4-----3-----2----------------5--5-----5-----5--2-----------4-----4-----
--4--4-----------------------------6-----5~---4-----4-----------------------2-----2-----
--------------2-----2-----2-----2-----2-------------------------2-----2-----------------



----------------------------------------------1--0--------------------------------------------
--3.--------2p0-------------3--------3-----3--3-----3------------------5----------------------
--2.--0h1h2------2-------1--1-----2-----2--1-----------6--6---------6-----7--6--4--4-------4--
--4.----------------4h5--------------------------------6--6---------7-----------4--4-----4---4
--2.---------------------------2-----------------------0-----0~~/5----------------------------
-------------------------0-----------------0------------------------------------4-----4-------


---------------------|-----------|
-----2---------------|-----------|
--4--4--4--2--1------|--3 times--|
--3-----------0--4~--|---intro---|
--4--------------4~--|-----------|
--------------1--2~--|-----------|



-----5/7--5--4--------------------------------------------------------------------------
--7-------------7--6------------------------------------------------------------5-----5-
--5-------------------7\6--4\2--------1-----5/6--5/6--5/6--4--------------------4-----4-
--7--------------------------------3-----4--------------------7--6--4--7--------4-----4-
--4-----------------------------4-----------------------------------------4--2----------
-----------------------------------------------------------------------------------4----



----------------------------------------------------------------------------------------
------5--5-----5--------------------------------------------2-----2-----2--2-----2------
------4--4-----4--------3/4--3/4--3/4--4--2--1--------------2-----2-----2--2-----2------
------3--3-----3--------3----3----3-------------4--3--------4-----4-----4--4-----4------
------4--------------4--------------------------------5--4------------------------------
--4.--------4-----4--------------------------------------------2-----2--2-----2---------



----------------------------------------------------------------------2--5--9h10------9-
--------------------3-----------------------------------------2--5p3--------------11----
-----------2--3--5-----3\2---------------------------------3----------------------------
--2--4--5-------------------5--4--3--2------------------4-------------------------------
----------------------------------------4--1-----2.--5----------------------------------
----------------------------------------------2-----------------------------------------



------------------------------------------------------------5--8--5--7--4--5--2---------
--12--10--9----------------------7--------------------------5--8--4--------------3-----3
-------------11--9h11p9\8--7--9-----7p6---------------------6--8--5-----------------4---
-----------------------------------------9--7-----6---------5--5--4---------------------
-----------------------------------------------9----------------------------------------
-----------------------------------------------------0--5-------------------------------


---------------------------------------------------------------------------------4--4--4
--2-----------------5p3--------2-------------------------2p1---------------------2--2--2
-----4--2--1-------------2--------4p2--1-----------1--2-------4--/4--2-----1--2--2--2--2
--------------4--3----------3-------------4--3--4-----------------------3-----4--4--4--4
----------------------------------------------------------------------------------------
------------------------------------------------------------------------------2---------


--4--4--4--4--4--4~--2-------------------------------------9---9---9---9---9---9---9----
--2--2--2--2--2--2~-----5--3--3-----3-----3--3-----3-------10--10--10--10--10--10--10---
--2--2--2--2--2--2~--------4--4-----4-----4--4-----4-------9---9---9---9---9---9---9----
--4--4--4--4--4--4~--------4--4-----4-----3--3-----3------------------------------------
------------------------------------------4-----4-----4/8--8---8---8---8---8---8---8----
---------------------------4-----4-----4------------------------------------------------


--9---9~~--7--5--4--4--2-----4--5--7--5--4----------------------------------------------
--10--10~--7--5--2--2--2--7-----------------7--5--------------------8h10p8p7\6--7-------
--9---9~~--7--5--2--2--2--------------------------7--6--------6--9----------------------
-----------7--4--2--------------------------------------9--8----------------------------
--8---8~~-------------------------------------------------------------------------------
----------------------------------------------------------------------------------------


--/10p9p7\6---------------------------------9--12-----10-----9-----7-----5--------4--4--
-------------8--7--------------------7--10----------------------------------------3--3--
-------------------7--------6-----7----------------9------7-----6-----4-----2-----4--4--
----------------------8--------9--------------------------------------------------2-----
-------------------------9--------------------------------------------------------------
-------------------------------------------------------------------------------0--------


--/7--7/10--10\7--7\4--1----------------------------------------------------------------
--/6--6/9---9\\6--6\3--0--5--5-----7--5--5-----5--7--5--3--3-----3--5--3--2--2-----0----
--/7--7/10--10\7--7\4--1--6--6-----6--6--6--------------4--4--------------4--4--------2-
-----------------------0--6--6-----6--4--4--------------4--4--------------3--3----------
--------------------------------------5-----5-------------------------------------------
--------------------------5-----5-----------------------4-----4-----------4-----4-------




----------|-----------|--------------------------4--5p4-----------------------4--7------
----------|-----------|--7--7--------7-----4--7----------7--5--------4-----5------------
--1-------|--3 times--|--6--6--------------5----------------------5-----6---------------
--0--4~~--|---intro---|--7--7-----7-----7--4-------------------6------------------------
-----4~~--|-----------|--6-----6--------------------------------------------------------
--1--2~~--|-----------|--------------------4--------------------------------------------


--11p9--8h9-------------7p6p5p4--5-----4------------------------------------------------
-------------9----------------------6-----7--5p4------------------------5.--------4.----
----------------9p8--6----------------------------6--3--4h5-----------------------------
-------------------------------------------------------------7p6--4---------6---------5-
---------------------------------------------------------------------7------------------
-------------------------------------------------------------------------------4--------


----------------------------------------------7--6--5--6--7--5--6--6-----------6--13p11-
--------4--5p4-----------9--9--------------6--------------------7--7--------7-----------
-----6----------6--------8--8--------8-----7--------------------6--6-----8--------------
--6----------------6-----9--9-----9-----9--6--------------------------------------------
----------------------7--8-----8--------------------------------6-----6-----------------
-------------------------------------------6--------------------------------------------


------------------------------------------------6--9------7-----------6-------------6.--
--11-----------------------------------------7--------11-----7-----------9p7--6--8------
------11\10-------------------------------8---------------------7----------------6------
-------------13-----------------11\10--9---------------------------8--------------------
-----------------13------11h13---------------------------------------------------6------
---------------------14-----------------------------------------------------------------


-----4.-----4.-----2.-----2.-----0.-----5.----------------------------------------------
--7------6------5------4------3------2---------------5--7--9p7p5--5---------------------
--5------4------3------2------1------0------------7------------------7\6--4-------------
-------------------------------------2------7--7--4--------------------------7----------
---------4-------------2-------------0------------5-----------------------------8\7--5\4
--4-------------2-------------0---------------------------------------------------------


-------------|--8/9--9--9--8/9--9--9--8/9--9--9--------------------------------6/7--7--7
---------2.--|-----------------------------------4-----4--4-----------------------------
---------2.--|--5/6--6--6--5/6--6--6--5/6--6--6--4--x--4--4--6--x--6--6--x--x--3/4--4--4
---------4.--|-----------------------------------4--x--4--4--3--x--3--3--x--x-----------
-------------|-----------------------------------6--x--6--6--4--x--x--x--x--x-----------
--5--2.------|-----------------------------------4--x--4--4--------4--4-----------------



--6/7--7--7--6/7--7--7--6/7--7--7--5--------------------------------2/3-----3--2--3--2--
--------------------------------------------------------------------4/5--x--5-----------
--3/4--4--4--3/4--4--4--3/4--4--4--2--x--2--x--x--2--x--x--2--x--x--3/4--x--4-----------
--------------------------------------x--2--x--x--2--x--x--2--x--x--x/x--x--x-----------
--------------------------------------x--4--x--x--4--x--x--4--x--x--3/4--x--4-----------
-----------------------------------------2--x--x--2--x--x--2--x--x--2/3--x--3-----------



-------------------------------------------------------2--5--9--10------9---------------
--5p3--2---------------------------------------2--5p3---------------11-----12--12\9-----
----------4--3------------------------------3-------------------------------------------
----------------5--4--2-------------2p0--4----------------------------------------------
-------------------------5-------4------------------------------------------------------
----------------------------2h5--------------------------------------------0------------



-----------------------------------------5------------7--5--4---------------------------
--10\9--9--9--7--7\5--5\3--3----------------8--7\6/7-----------7--6---------------------
------------------------------4--6p5--6--------6\5/6-----------------7--6--4------------
---------------------------------5----5---------------------------------------7--6--4--4
-----------------------------------------------5\4/5------------------------------------
--------------0------------------5--------------------------------------------------2--2




--------------/9--9--7--5--2--2-----2-----2--2-----2--------------------------9--10p9---
--------7--7---------------2--2-----2-----2--2-----2-----2--2-----2-----2--2------------
--6--6--------/6--6--4--2--2--2-----2-----2--2-----2-----4--4-----4-----4--4------------
--------4--4---------------------------------------------4--4-----4-----3--3------------
--4--4---------------------------4-----4--------4-----------------------4---------------
---------------------------2--------------2-----------2--4-----4-----4------------------



----------------------------------------------------------------------------------------
--12--10--9-----------------------------------------------------------------------------
-------------11--10-----------------------------------7p6-------------------------------
---------------------12--11--10p9--------------------------9--7-----6--------6/7--9-----
-----------------------------------12p11--9--6--7--8-------------9-----8--9-------------
----------------------------------------------------------------------------------------



---------------------------------------2-------------------2--5--9/12--9----------------
-------------------------10--10-----4-----3-------2--2--3--------7-----7--10--7---------
-------------------------9---9---9--3-----2----2-----2-----------7-----7---------7--6--6
--10p9p7--9--7-----------8---8-----------------------------------7-----7------------6--6
----------------9--7--9--9---9-----------------------2------------------------------5---
---------------------------------9--2--------2------------------------------------------



----------------------------------------------------------------------------------------
-----------5--6--6-----6--5--------------------5--7--7-----5--3-----2--2--------2/3-----
-----6--7-----5--5-----------7--6--6-----6--7-----6--6-----------4--4--4-----4----------
--------------6--6--------------6--6--------------7--7--------------4--4----------------
--------------5-----------------0-----0-----------5-----5-------------------------------
--0-----------------0-----------------------------------------------4-----4-------------



-----------------7--5--4-----------------------------------------------------------5--7-
--5--3--2-----------------7--5-----------------------------------------------7--7-------
--4-----4--4--2-----------------7--6h7p6--4----------------------------6--6--------2--5-
--------3-----2------------------------------7p6--4\3--6--4--4--/7--7-------------------
--4-------------------------------------------------------------------------------------
--------3-----2-------------------------------------------------------------------------


------------------------------------------4--7--9--7--9--7--4/5--2----------------------
--9--9------------5-----5-----5-----3--6-----x--x--x--x--x----------2-------------------
--8--8------------4-----4-----4--4-----------4--6--4--6--4--1/2--------5--2--4--2-------
--9--9------------3-----3-----3----------------------------------------------------4----
--8--------2h3/4--------------4-------------------------------------------------------4-
--------4------------4-----4------------------------------------------------------------

4:25+-
--------------------------------6--9-----6--------------------5--9--12--10------9-------
--------------------------5--8--------8-----5--8-----5-----7----------------11-----12---
-----2--------------3--6--------------------------6-----7-------------------------------
--2-----4--2--4--5----------------------------------------------------------------------
----------------------------------------------------------------------------------------
----------------------------------------------------------------------------------------


----------------------------------------------------------------------------------------
--10--9-------------------------------------------------------------6p5-----------------
---------11--9------8------7----------------------------------4--7-------7--6--7--8--9--
----------------11-----10--------8--11--9-----------7--4h5h6----------------7-----------
------------------------------9------------------9--------------------------0--------0--
-------------------------------------------7h10-----------------------------------------


---------4--5--7--5--4--------------------------------------------------------|--------|
--10--7-----------------7--5--5-----5-----3--3-----3--------------------------|--------|
------6--------------------4--4-----4-----4--4-----4-----2--2--4--4--2--1-----|-intro--|
------0--------------------3--3-----3-----3--3-----3-----2--2--3--3--2--0--4--|-----3x-|
------------------------------------------4-----4-----4--------------------4--|--------|
---------------------------4-----4-----4-----------------2--2--4--4--2--1--2--|--------|



-----------------------5-----4---------------11--9--------------------------------------
--7--7--------------4--4--------7--7--5--5.---------9-------------------------7--7------
--6--6--------6-----5--5-----------4-----4.------------9\8--------------------6--6------
--7--7-----7-----7--4--------------6-----6.-----------------11----------------7--7------
--6-----6--------------------------4-----4.---------------------11------------6-----6---
--------------------4-----4-----------------------------------------12\11--9------------


--------------5-----4----------------------------------------------------------------7--
-----------4--4--------7--7--5--4--5--7--4--5--4----------------9--9--------------6--6--
-----6-----5--5-----------4-----4-----------4-----5h6-----------8--8--------8-----7--7--
--7-----7--4--------------6-----6-----------6----------6--------9--9-----9-----9--6-----
--------------------------4-----4-----------4-------------7--4--8-----8-----------------
-----------4-----4----------------------------------------------------------------6-----


-----6------------------13--11-------------------------------------------------------7--
--------9--9--7-----------------11------------------------------9--9-----------------6--
-----------6--------10--------------11\10-----------------------8--8--------8-----7--7--
-----------8-------------------------------12-------------------9--9-----9-----9--6-----
-----------6-----6-----------------------------12---------------8-----8-----------------
--6------------------------------------------------14\13--11----------------------6-----


-----6--------6.-----4.-----4.-----2.-----2.-----0-----5.-------------------------------
--------9--8------7------6------5------4------3-----2----------------5--7--9p7--5-------
-----------6------5------4------3------2------1-----0------------7.-----------------7\6-
----------------------------------------------------2------7--7--4.---------------------
-----------6-------------4-------------2------------0------------5.---------------------
--6---------------4-------------2-------------0-----------------------------------------


---------------------|
---------------------|
--4------------------|
-----7---------------|
--------8\7--5\4-----|
------------------7--|

------------------------------------------------------------------------
--2--2-----2-----5--3--2------------------------------------------------
--2--2-----2-----2--2--2---4--4~-----4-----4--4-----4-----4--4-----4----
--4--4-----4---------------3--3~-----3-----3--3-----3-----3--3-----3----
--------4--------4-------------------------4----------------------------
--2-----------2------------4------4-----4--------4-----4--4-----4-----4-


-------------------------------------------------------------------3--2-----------------
--------3--0--2--2-----2-----2-----2-----2~---5--5--------------2--2--2--5--5--3--2--5--
--4-----4--4--2--2-----2-----2-----2-----2~---4--4--------4-----3--3--3-----2-----2-----
--3-----3--3--4--4-----3-----2----------------5--5-----5-----5--2-----------4-----4-----
--4--4-----------------------------6-----5~---4-----4-----------------------2-----2-----
--------------2-----2-----2-----2-----2-------------------------2-----2-----------------


-------------------------------------------------1--1p0---------------------------------
--3.-------2p0--------------3--------3-----3-----3-----3------------------------5-------
--2.--1h2----------2-----1--1-----2-----2--1--------------6--6-----6---------6-----7--6-
--4.------------4-----3-----------------------------------6--6-----6---------7----------
--2.------------------------2-----------------------------0-----0-----0~~/5-------------
-------------------------0-----------------0--0-----------------------------------------


-------------------------------------4--2~~--|----------|
--------------------2----------------3--2~~--|----------|
--4--4-----4-----4-----4--2--1-------1--2~~--|--intro---|
--4--4--------4--3-----------0--4~~--3--4~~--|------3x--|
-----------------4--------------4~~----------|----------|
--4-----4--------------------1--2~~----------|----------|


------/7--5--4-----------------------------------------------------2~~~~--|---|
--7~------------7--5h7p5--------5---------------------------------2~~~~~--|---|
--6~----------------------6--7-----6-----------------------------2~~~~~~--|-E-| 
--7~----------------------------------7--3-----6--4.--4.--3.----4~~~~~~~--|-N-|
--5~----------------------------------------4------------------4~~~~~~~~--|-D-|
--------------------------------------------------------------2~~~~~~~~~--|---|
Добавлено: 22.03.2016
Другие материалы по этой песне:
  • Аккорды и текст

Страница создана 22.03.2016
http://primanota.ru/joe-pass/paco-de-lucia-chords.htm
Привет, Гость.
Предлагаем пройти революционный курс по гитаре.
Подарок от PrimaNota.Ru, забирай!