PrimaNota.ru - самый крупный в мире бесплатный архив песенных текстов, аккордов, табулатур и нот


Joe Pass - Django - таба, видео

Регистрация Запомнить меня
Войти через:  Facebook Google Twitter Vk Yandex Mail.ru

Joe Pass - Django - таба, видео

Печатать
Просмотров: 418
esta cancion me costo mucho trabajo conseguir las notas asi que espero y la 
disfruten por Aldo Lopez



Joe Pass - Django

|--4-3-------------3-6--4--3-4------8-11---9--8--9-------6-9-8-6-8--4-|
|--6----6-5-6--2---2-5--6--5-6--6~--7-10--11-10-11--11~--4-8-9---9--4-|
|--5----6-5-6--3---3-6--5-------5~--8-11--10--------10~--6-8-8---8--5-|
|--3----8-7-8--3---2-5--3-------6~--7-10---8--------11~--5-8-6------4-|
|---------------------------------------------------------------------|
|---------------------------------------------------------------------|

|-4-8-6-4-6-----7----7----8---7-8/15~~-15-13--11-9---8-6-6--4---------|
|-6-6-6---6--8--8-10---8--8------------13-13--13-11--9-5-5--6---------|
|-5-6-6---6-----7---------9------------13-13--10-10--9-6-6--5---------|
|-6-6-5---5-----7---------10-----------15-15--11-11--8-5-5--3---------|
|-4-------------------------------------------------------------------|
|---------------------------------------------------------------------|

|-------------------1|------------------------------------------------|
|-8-6--4-2--1-1--1--1|---9-8-6-----------------------------------6---6|
|-5-5--5-3--1-3--3--1|---------5-----5-6-8-5-------------5---5-7---8--|
|-6-6--3-3--2-2--2--3|-----------6-8---------6-------5-7---8----------|
|------4----3-3--3--3|-------------------------7---8------------------|
|-------------------1v---------------------------8--------------------|

|---6----------------------------------------------8-12--15p13--------|
|-8---9-7-6------------------------9------8------9-------------13-----|
|-----------8-6----------------------9-------9h10-----------------13--|
|---------------6-8-9---11-8-9-10------10-----------------------------|
|---------------------------------------------------------------------|
|---------------------------------------------------------------------|

|-11-10p9-------------------------------------------------------------|
|---------9----------------6-7p6--------------4h5p4-------------------|
|-----------9-8------------------8-7----------------6-5---------------|
|---------------11-10-8-7------------9-8-6-5------------7-6-4-3-------|
|---------------------------------------------------------------------|
|---------------------------------------------------------------------|

|---------------------------------------------------------------------|
|-------------------------------------------8-6-------5/6-------------|
|-----------8p6p5-----------------------5-7-----5---------------------|
|-------5h8-------8-6-------5-----5-6-8-----------8-7-----------------|
|-4-8-7-----------------5-7---7-8-------------------------------------|
|---------------------8-----------------------------------------------|

|-------------------------------------8-11-8-10-8-9h11p9-------8--------|
|-------8/9-6---------------------6-9--------------------11-10----------|
|---5h8-------8-6-------5-----5-6--------------------------------11-9-10|
|-7-----------------5-7---7-8-------------------------------------------|
|-----------------8-----------------------------------------------------|
|-----------------------------------------------------------------------|

|--------------------------------------------------13-16-14-13----------|
|--------------------------------------------13-16------------16-14-13--|
|-8-5-6-----5-------5-6-------------------14--------------------------15|
|---------7---8-7-8-----------------13-16-------------------------------|
|-------8---------------8-8---12-15-------------------------------------|
|-----------------------------------------------------------------------|

|-13---12--11--10-8/9--------------------------------------------------|
|---13-------11------10------------------------------------------------|
|----------------------10-8--10---------------------------8-11-10-8----|
|--------------------------11--10h11-7h8--10-11-10-8-7-10--------------|
|----------------------------------------------------------------------|
|----------------------------------------------------------------------|


|------8-11-10-8---------------------------------------------------------|
|-----9---------11-9-8----------------------------------------------9-12-|
|-7h10----------------10-8-7---------------------------------8-11-9------|
|---------------------------11-----10-9--8---------9-----8-11------------|
|------------------------------8-11----11-9---11-10-10-11----------------|
|------------------------------------------------------------------------|


|-11--14p12--14p12-----14p12--14p12-----14p12--14p12---------9p7-9p7---|
|----------------------------------------------------------6-----------|
|-----------------13----------------13--------------13---/6----------8-|
|----------------------------------------------------------------------|
|----------------------------------------------------------------------|
|----------------------------------------------------------------------|

|--------------------------9---------------------------------------------|
|--------6-----------7h8h9---9p8p7---------------------------------------|
|--6-8/9--6------6h9---------------9-6-----------------------------6-/10-|
|-6---------9-6-----------------------6-8/9-8---8-6---6-------6h8-6--/11-|
|---------------------------------------------9-----7---9--7h8-----------|
|------------------------------------------------------------------------|

|----------------------------------------------------------------------|
|------------9-9/8----8-9-----------9----8----------9-7----------------|
|-------------9----10------10/7-------------------------6--------------|
|---10-11-10--------------------7/9---9/8----8-6-7--------7-6----------|
|-11----------------------------------------------------------9-8-6-5-8|
|----------------------------------------------------------------------|

|-------------------------7-8---7---6-----------------------------------|
|---------------------6-9-----9---9---7-6---9----7---6------------------|
|-----------------5-6---------------------8----8---8---8-6--------------|
|-6-9-8-6---6-7-8------------------------------------------9-----8------|
|---------9--------------------------------------------------6-9---6/5--|
|----------------------------------------------------------------------8|

|----------------------------------------------------------15-18-17-15-|
|------------------------9---------------------------13-16-------------|
|-----5-----7-------8-11----8------------------12-15-------------------|
|---6-----8------10-----------10----------10-13------------------------|
|-7-----9-----11-----------------11-10-11------------------------------|
|----------------------------------------------------------------------|

|-16-13-----------------11----11-13-13---13-------11-15-11-15-16-------|
|-------13----------/13----13--------------14-14-----------------------|
|----------13-15-------------------------------------------------------|
|----------------------------------------------------------------------|
|----------------------------------------------------------------------|
|----------------------------------------------------------------------|

|----------11----------------------------------------------------------|
|-13-14-13---/13-11-13----------------------------------------------13/|
|----------------------13/10-10--10-1111111111111111-9/10-----------13/|
|---------------------------------------------------------13-11-11--11/|
|----------------------------------------------------------------------|
|----------------------------------------------------------------------|

|-------------13-12-11----------11-10-9-------------------11--------------|
|-------------------------------------------------------------------------|
|-10-13-12-11------------------------------------13-12-11------------12-11|
|----------------------13-12-11---------12-11-10-------------11-10-8------|
|-------------------------------------------------------------------------|
|-------------------------------------------------------------------------|

|-----------------------------------------------------------------------|
|------------------------------------------6-7-9-6----------------------|
|-10--------------5-------6-5--------5-6-8---------8-6------------------|
|----11-8-------7-----5-8-----8-5-6--------------------7-6----------7-10|
|---------8---8-----7--------------------------------------9-8---8------|
|--------------------------------------------------------------9--------|

|-------------8-11-10-9-8-----------------------------------------------|
|-----------9-------------11-9------------------------------------------|
|--------10--------------------11-9------8------------------------------|
|-7-8-11-------------------------------9---11-10-8/7-10-----------------|
|-----------------------------------11------------------9-7-8--5-6------|
|------------------------------------------------------------------8----|

|------------------------8-11-8-9-11-9-8--------------------------------|
|----------------------9-----------------11-9-8-------------------------|
|-------------5-8-6-10--------------------------11-------10-8-----------|
|-------5-6-8-----------------------------------------11------9-8----11-|
|-5-6-8--------------------------------------------11-------------11----|
|-----------------------------------------------------------------------|

|-------------------------------------------------6-9-7-5-6-------------|
|--------------9---------------------6/9--------7-----------7-5-9-------|
|-----------11------9-11-----6---4-6-----8-6--6-------------------6---9-|
|-8-9----8-------11--------6---6------------------------------------9---|
|-----11----------------------------------------------------------------|
|-----------------------------------------------------------------------|

|-----------------------------15-13--11--9--8-6-6--4--------------------|
|-----------6-7-6-------------13-13--13-11--9-5-5--6--8-6--4-2--1-1--1--|
|---6-----6------6------------13-13--10-10--9-6-6--5--5-5--5-3--1-3--3--|
|-8-----6----------6-9-6-8-6--15-15--11-11--8-5-5--3--6-6--3-3--2-2--2--|
|----9-----------------------------------------------------4----3-3--3--|
|-----------------------------------------------------------------------|

|-------------------8/13-15-16------------------------------------------|
|-------------6-8-9-----------------------------------------------------|
|-----------5-----------------------------------------------------------|
|-----3-5-6-------------------------------------------------------------|
|-3-5-------------------------------------------------------------------|
|-----------------------------------------------------------------------|
Добавлено: 08.05.2012
Другие материалы по этой песне:

Страница создана 14.04.2012
http://primanota.ru/joe-pass/django-chords.htm
Привет, Гость.
Предлагаем пройти революционный курс по гитаре.
Подарок от PrimaNota.Ru, забирай!