PrimaNota.ru - самый крупный в мире бесплатный архив песенных текстов, аккордов, табулатур и нот


Blue Stahli - Youll Get Whats Coming - таба, видео

Регистрация Запомнить меня
Войти через:  Facebook Google Twitter Vk Yandex Mail.ru

Blue Stahli - Youll Get Whats Coming - таба, видео

Печатать
Просмотров: 71
-------------------------------------------------------------------------------
                  You'll Get What's Coming by Blue Stahli
-------------------------------------------------------------------------------
Tabbed by: EK


Tuning: Drop C# (C# G# C# F# A# D#)

Intro: (I tabbed out the synth parts as well, so you can choose whether or not you want to play that)

D#|---------------------|-------------------------|---------------------|----------------------------------|
A#|---------------------|-------------------------|---------------------|----------------------------------|
F#|--7-----7--10-----10-|-12-----12---------------|--7-----7--10-----10-|-12-----12------------------------|
C#|--x-----x---x------x-|--x------x---------------|--x-----x---x------x-|--x------x--10-10-10-10-10-10-10\-|
G#|--5-----5---8------8-|-10-----10---------------|--5-----5---8------8-|-10-----10--10-10-10-10-10-10-10\-|
C#|-----0---------3-----|-----5-----6-5-3-5-3-0-1-|-----0---------3-----|-----5------10-10-10-10-10-10-10\-|


Main Riff:

D#|------------------------------------------|-------------------------------------------|
A#|------------------------------------------|-------------------------------------------|
F#|------------------------------------------|-------------------------------------------|
C#|-12-12-12-11-11-11-10-10-10-9-9-9-8-8-7-7-|-12-12-12-11-11-11-10-10-10-9-9-9--1-0-1-0-|
G#|-12-12-12-11-11-11-10-10-10-9-9-9-8-8-7-7-|-12-12-12-11-11-11-10-10-10-9-9-9--1-0-1-0-|
C#|-12-12-12-11-11-11-10-10-10-9-9-9-8-8-7-7-|-12-12-12-11-11-11-10-10-10-9-9-9--1-0-1-0-|
                                                                                 . . . . 
------------------------------------------|----------------------------------|
------------------------------------------|----------------------------------|
------------------------------------------|----------------------------------|
-12-12-12-11-11-11-10-10-10-9-9-9-8-8-7-7-|----------------------------------|
-12-12-12-11-11-11-10-10-10-9-9-9-8-8-7-7-|----------------------------------|
-12-12-12-11-11-11-10-10-10-9-9-9-8-8-7-7-|-3-3-3-0-3-3-0-3-6-6-6-5br--3-5-3-|


Verse:

D#|---------------------|----------------------------------|---------------------|
A#|---------------------|----------------------------------|---------------------|
F#|---------------------|----------------------------------|---------------------|
C#|-0---0--0---0---0--0-|-0---0--0---10-12-12-10-12-12-13b-|-0---0--0---0---0--0-|
G#|-0---0--0---0---0--0-|-0---0--0---10-12-12-10-12-12-13b-|-0---0--0---0---0--0-|
C#|-0---0--0---0---0--0-|-0---0--0---10-12-12-10-12-12-13b-|-0---0--0---0---0--0-|
    .   .  .   .   .  .   .   .  .                           .   .  .   .   .  .

----------------------------------|---------------------|----------------------------------|
----------------------------------|---------------------|----------------------------------|
----------------------------------|---------------------|----------------------------------|
-0---0--0---10-12-12-10-12-12-15\-|-0---0--0---0---0--0-|-0---0--0---10-12-12-10-12-12-13b-|
-0---0--0---10-12-12-10-12-12-15\-|-0---0--0---0---0--0-|-0---0--0---10-12-12-10-12-12-13b-|
-0---0--0---10-12-12-10-12-12-15\-|-0---0--0---0---0--0-|-0---0--0---10-12-12-10-12-12-13b-|
 .   .  .                           .   .  .   .   .  .   .   .  .

---------------------|-----------------|
---------------------|-----------------|
---------------------|-----------------|
-0---0--0---0---0--0-|-0---0--0---0----|
-0---0--0---0---0--0-|-0---0--0---0----|
-0---0--0---0---0--0-|-0---0--0---0----|
 .   .  .   .   .  .   .   .  .   .


Chorus:

D#|---------------------------------|-------------------------------|---------------------------------|
A#|---------------------------------|-------------------------------|---------------------------------|
F#|---------------------------------|-------------------------------|---------------------------------|
C#|-0-0-0-0-0-0-0-0-3-3-3-3-3-3-3-3-|-5-5-5-5-5-5-5-5---------------|-0-0-0-0-0-0-0-0-3-3-3-3-3-3-3-3-|
G#|-0-0-0-0-0-0-0-0-3-3-3-3-3-3-3-3-|-5-5-5-5-5-5-5-5---------------|-0-0-0-0-0-0-0-0-3-3-3-3-3-3-3-3-|
C#|-0-0-0-0-0-0-0-0-3-3-3-3-3-3-3-3-|-5-5-5-5-5-5-5-5-6-5-3-5-3-0-1-|-0-0-0-0-0-0-0-0-3-3-3-3-3-3-3-3-|

---------------------------------------|---------------------------------|-------------------------------|
---------------------------------------|---------------------------------|-------------------------------|
---------------------------------------|---------------------------------|-------------------------------|
-5-5-5-5-5-5-5-5-10-10-10-10-10-10-10\-|-0-0-0-0-0-0-0-0-3-3-3-3-3-3-3-3-|-5-5-5-5-5-5-5-5-6-5-3-5-3-0-1-|
-5-5-5-5-5-5-5-5-10-10-10-10-10-10-10\-|-0-0-0-0-0-0-0-0-3-3-3-3-3-3-3-3-|-5-5-5-5-5-5-5-5-6-5-3-5-3-0-1-|
-5-5-5-5-5-5-5-5-10-10-10-10-10-10-10\-|-0-0-0-0-0-0-0-0-3-3-3-3-3-3-3-3-|-5-5-5-5-5-5-5-5-6-5-3-5-3-0-1-|

---------------------------------|---------------------------------------|
---------------------------------|---------------------------------------|
---------------------------------|---------------------------------------|
-0-0-0-0-0-0-0-0-3-3-3-3-3-3-3-3-|-5-5-5-5-5-5-5-5-10-10-10-10-10-10-10\-|
-0-0-0-0-0-0-0-0-3-3-3-3-3-3-3-3-|-5-5-5-5-5-5-5-5-10-10-10-10-10-10-10\-|
-0-0-0-0-0-0-0-0-3-3-3-3-3-3-3-3-|-5-5-5-5-5-5-5-5-10-10-10-10-10-10-10\-|

The Main Riff is played again, then the Verse riff, then the Chorus is played again. After the
second Chorus, the Main Riff is played again, and then the Bridge is played.


Bridge: (I'm not able to get the exact number of times Bret picks the 12's, 7's, 8's, and 1's, 
so I just tabbed those notes out with a "t" meaning "tremolo pick.")

D#|--------------------|---------------------|------------------------------------------------|
A#|--------------------|---------------------|------------------------------------------------|
F#|--------------------|---------------------|------------------------------------------------|
C#|-0-0----------------|-0-0----------0-0----|-0-0----------0-0-------------------------------|
G#|-0-0----------------|-0-0----------0-0----|-0-0----------0-0-------------------------------|
C#|-0-0----------------|-0-0----------0-0----|-0-0----------0-0---/13-13-13-13-13-13-13-13-13-|
    . .                  . .          . .      . .          . .

--------------------|----------------------------------------------|------------------|-----------------|
--------------------|----------------------------------------------|------------------|-----------------|
--------------------|----------------------------------------------|------------------|-----------------|
-0-0---0----0-0---0-|-0-0---0----0-0-------------------------------|------------------|-----------------|
-0-0---0----0-0---0-|-0-0---0----0-0-------------------------------|------------------|-----------------|
-0-0---0----0-0---0-|-0-0---0----0-0---/13-13-13-13-13-13-13-13-13-|-12t------7t------|-8t------1t------|
                                                                      .       .         .       .
                                                                      (very lightly palm muted here)

------------------|---------------------|------------------|-----------------|------------------|-----------|
------------------|---------------------|------------------|-----------------|------------------|-----------|
------------------|---------------------|------------------|-----------------|------------------|-----------|
------------------|---------------1-1-1-|------------------|-----------------|------------------|-----------|
------------------|---------------1-1-1-|------------------|-----------------|------------------|-----------|
-12t------7t------|-8t------1t----1-1-1-|-12t------7t------|-8t------1t------|-12t------7t------|-8t--------|
  .       .         .       .     . . .

After the palm mute is lifted, Bret adds another guitar that plays almost the exact same thing. For some
odd reason though, this guitar plays a harmony when the other guitar tremolo picks the 12th fret, then
proceeds to play the same notes as the first guitar. This guitar looks like this:

D#|-----------------|-----------------|-----------------|-----------|
A#|-----------------|-----------------|-----------------|-----------|
F#|-----------------|-----------------|-----------------|-----------|
C#|-7t--------------|-----------------|-7t--------------|-----------|
G#|-----------------|-----------------|-----------------|-----------|
C#|---------7t------|-8t------1t------|---------7t------|-8t--------|

After the Bridge, play the final Chorus, then play the Outro.

Outro: (basically just the Main Riff with a variation at the end)


D#|------------------------------------------|-------------------------------------------|
A#|------------------------------------------|-------------------------------------------|
F#|------------------------------------------|-------------------------------------------|
C#|-12-12-12-11-11-11-10-10-10-9-9-9-8-8-7-7-|-12-12-12-11-11-11-10-10-10-9-9-9--1-0-1-0-|
G#|-12-12-12-11-11-11-10-10-10-9-9-9-8-8-7-7-|-12-12-12-11-11-11-10-10-10-9-9-9--1-0-1-0-|
C#|-12-12-12-11-11-11-10-10-10-9-9-9-8-8-7-7-|-12-12-12-11-11-11-10-10-10-9-9-9--1-0-1-0-|
                                                                                 . . . . 

------------------------------------------|----------------------------------|-----------------|
------------------------------------------|----------------------------------|-----------------|
------------------------------------------|----------------------------------|-----------------|
-12-12-12-11-11-11-10-10-10-9-9-9-8-8-7-7-|----------------------------------|-0---0--0---0----|
-12-12-12-11-11-11-10-10-10-9-9-9-8-8-7-7-|----------------------------------|-0---0--0---0----|
-12-12-12-11-11-11-10-10-10-9-9-9-8-8-7-7-|-3-3-3-0-3-3-0-3-6-6-6-5br--3-5-3-|-0---0--0---0----|
                                                                               .   .  .   .

That's it for this tab. If it helped you at all, don't forget to leave a rating, comment, etc. I will be
trying to tab out most of the songs from "The Devil," so keep an eye out for those.

TAB LEGEND
-------------------
.     Palm mute
/     Slide up
\     Slide down
b     Bend
*     Natural Harmonic
t     Tremolo pick
-------------------
Добавлено: 07.05.2016
Другие материалы по этой песне:
  • Аккорды и текст

Страница создана 07.05.2016
http://primanota.ru/blue-stahli/youll-get-whats-coming-chords.htm
Привет, Гость.
Предлагаем пройти революционный курс по гитаре.
Подарок от PrimaNota.Ru, забирай!