PrimaNota.ru - самый крупный в мире бесплатный архив песенных текстов, аккордов, табулатур и нот


Blue Stahli - Ready Aim Fire - таба, видео

Регистрация Запомнить меня
Войти через:  Facebook Google Twitter Vk Yandex Mail.ru

Blue Stahli - Ready Aim Fire - таба, видео

Печатать
Просмотров: 192
Уроки эстрадного вокала в Санкт-Петербурге
-------------------------------------------------------------------------------
                         Ready Aim Fire by Blue Stahli 
-------------------------------------------------------------------------------
Tabbed by: EK


Tuning: Drop C (C G C F A D)


Bret uses an auto-wah pedal on the guitars for the majority of this song; I've indicated what parts of the
song use it.

Intro: (with auto-wah)

D|----------------------------|----------------------------|----------------------------|
A|----------------------------|----------------------------|----------------------------|
F|----------------------------|----------------------------|----------------------------|
C|----------------------------|----------------------------|----------------------------|
G|-10\------------------------|-10\------------------------|-10\------------------------|
C|--------5-5-5-8p5-5-5-5-5-5-|--------5-5-5-8p5-5-5-5-5-5-|--------5-5-5-8p5-5-5-5-5-5-|
            . .     .   .                . .     .   .                . .     .   . 

----------------------------|           
----------------------------|            Be sure to accent the notes that aren't palm muted
----------------------------|            because the harder you accent a note with an auto-wah, 
----------------------------|            the more wah it has. You can really hear the accented 
-10\------------------------|            notes throughout this song; they sound brighter, clearer,
--------5-5-5-8p5-5-5-------|            and, of course, have a clearer wah sound to them. Also,
          . .     .                      for the notes that are palm muted, only lightly palm mute them.


Main Riff:

Guitar I: (with auto-wah)
D|----------------------------|----------------------------|----------------------------|-------------------|
A|----------------------------|----------------------------|----------------------------|-------------------|
F|----------------------------|----------------------------|----------------------------|-------------------|
C|----------------------------|----------------------------|----------------------------|-------------------|
G|-10\------------------------|-10\------------------------|-10\------------------------|-------------------|
C|--------5-5-5-8p5-5-5-5-5-5-|--------5-5-5-8p5-5-5-5-5-5-|--------5-5-5-8p5-5-5-5-5-5-|-------------------|
            . .     .   .                . .     .   .                . .     .   .


Guitar II: (with a slide and NO auto-wah)
D|-15\-\-\-\-\-\-\-\3/-/-/-/-/-/-/-/-|-15\-\-\-\-\-\-\-\3/-/-/-/-/-/-/-/-|-15\-\-\-\-\-\-\-\3/-/-/-/-/-/-/-/-|
A|-15\-\-\-\-\-\-\-\3/-/-/-/-/-/-/-/-|-15\-\-\-\-\-\-\-\3/-/-/-/-/-/-/-/-|-15\-\-\-\-\-\-\-\3/-/-/-/-/-/-/-/-|
F|-----------------------------------|-----------------------------------|-----------------------------------|
C|-----------------------------------|-----------------------------------|-----------------------------------|
G|-----------------------------------|-----------------------------------|-----------------------------------|
C|-----------------------------------|-----------------------------------|-----------------------------------|

-15\-\-\-\-\-\---------------------|
-15\-\-\-\-\-\---------------------|
-----------------------------------|
-----------------------------------|
-----------------------------------|
-----------------------------------|


Verse Riff:

D|----------------------------|--------------------------------|
A|----------------------------|--------------------------------|
F|----------------------------|--------------------------------|
C|----------------------------|--------------------------------|
G|-10\------------------------|-10\----------------------------|
C|--------5-5-5-8p5-5-5-5-5-5-|--------5-5-5-8p5-5-8h10--5-5-5-|
            . .     .   .                . .     .         . .

This is repeated three times each verse.


Chorus: (without auto-wah)

D|----------------------------------|----------------------------------|--------------------------------|
A|----------------------------------|----------------------------------|--------------------------------|
F|-----------------------/15-15-15b-|-----------------------/15-15-15b-|---------------------/15-15-15b-|
C|-3-5-5-5-8-5-5-5-3-5-5---x--x--x--|-3-5-5-5-8-5-5-5-3-5-5---x--x--x--|-3-5-5-5-8-5-5-5-3-5---x--x--x--|
G|-3-5-5-5-8-5-5-5-3-5-5-/13-13-13b-|-3-5-5-5-8-5-5-5-3-5-5-/13-13-13b-|-3-5-5-5-8-5-5-5-3-5-/13-13-13b-|
C|-3-5-5-5-8-5-5-5-3-5-5------------|-3-5-5-5-8-5-5-5-3-5-5------------|-3-5-5-5-8-5-5-5-3-5------------|

-------------------------------------|
-------------------------------------|
-------------------------------------|
-8-8-8---8-8-/10--10--10--10--10--10-|
-8-8-8---8-8-/10--10--10--10--10--10-|
-8-8-8---8-8-/10--10--10--10--10--10-|
 . .     .             .       .    

Turn your auto-wah back on and play the Main Riff and the Verse again. Then flip the pedal off and
play the Chorus again. The bridge is completely lacking of guitars, so I'd recommend just throwing in 
a guitar solo of your choice if you're playing this in front of other people. 


After the Bridge, play the Chorus again, then the Main Riff again, until finally he plays this little 
variation at the end.


Outro: 

Guitar I: (with auto-wah)
D|----------------------------|----------------------------|----------------------------|
A|----------------------------|----------------------------|----------------------------|
F|----------------------------|----------------------------|----------------------------|
C|----------------------------|----------------------------|----------------------------|
G|-10\------------------------|-10\------------------------|-10\------------------------|
C|--------5-5-5-8p5-5-5-5-5-5-|--------5-5-5-8p5-5-5-5-5-5-|--------5-5-5-8p5-5-5-5-5-5-|
            . .     .   .                . .     .   .                . .     .   .

-----------------------------|-------------------------|-------------------------------|
-----------------------------|-------------------------|-------------------------------|
-----------------------------|-------------------------|-------------------------------|
-----------------------------|-12\----------------5--5-|-5-5---------------------------|
-10\----10\----10\----10\----|-10\----------------5--5-|-5-5---------------------------|
-----------------------------|--------5-5-5-8p5-5-5--5-|-5-5---------------------------|
                                        . .     .


Guitar II: (with a slide and NO auto-wah)
D|-15\-\-\-\-\-\-\-\3/-/-/-/-/-/-/-/-|-15\-\-\-\-\-\-\-\3/-/-/-/-/-/-/-/-|-15\-\-\-\-\-\-\-\3/-/-/-/-/-/-/-/-|
A|-15\-\-\-\-\-\-\-\3/-/-/-/-/-/-/-/-|-15\-\-\-\-\-\-\-\3/-/-/-/-/-/-/-/-|-15\-\-\-\-\-\-\-\3/-/-/-/-/-/-/-/-|
F|-----------------------------------|-----------------------------------|-----------------------------------|
C|-----------------------------------|-----------------------------------|-----------------------------------|
G|-----------------------------------|-----------------------------------|-----------------------------------|
C|-----------------------------------|-----------------------------------|-----------------------------------|

-15\-\-\-15\-\-\-15\-\-\-15\-\-\-|----------------------------|----------------------------|
-15\-\-\-15\-\-\-15\-\-\-15\-\-\-|----------------------------|----------------------------|
---------------------------------|----------------------------|----------------------------|
---------------------------------|----------------------------|----------------------------|
---------------------------------|----------------------------|----------------------------|
---------------------------------|----------------------------|----------------------------|



That's about it for this tab though. If it helped you, then don't forget to leave a rating or a comment.
Also if you have any questions leave that in a comment as well. I am trying to tab out most, if not all, 
of the album "The Devil" so look out for future Blue Stahli tabs.




TAB LEGEND
-------------------
.     Palm mute
/     Slide up
\     Slide down
b     Bend
-------------------
Добавлено: 07.05.2016
Другие материалы по этой песне:
  • Аккорды и текст

Страница создана 07.05.2016
http://primanota.ru/blue-stahli/ready-aim-fire-chords.htm
Привет, Гость.
Предлагаем пройти революционный курс по гитаре.
Подарок от PrimaNota.Ru, забирай!