PrimaNota.ru - самый крупный в мире бесплатный архив песенных текстов, аккордов, табулатур и нот


Blue Stahli - Anti You - таба, видео

Регистрация Запомнить меня
Войти через:  Facebook Google Twitter Vk Yandex Mail.ru

Blue Stahli - Anti You - таба, видео

Печатать
Просмотров: 552
-------------------------------------------------------------------------------
                             Anti You - Blue Stahli
-------------------------------------------------------------------------------
Tabbed by:1a5i9dan
Email:amacmillen@shaw.ca
The bridge may be a bit off so if you have any suggestions email me and i will 
change it. Also you should listen to the song
while playing to get the timing right. Hope you enjoy!!!

Tuning: Drop D
 Intro:
e|---------------------------------------------------------------------------|
B|---------------------------------------------------------------------------|
G|---------------------------------------------------------------------------|
D|---------------------------------------------------------------------------|
A|---------------------------------------------------------------------------|
D|2h4-4-4-4----2/4-4-7p4-4----2h4-4-4-4----2/4-4-7----2h4-4-4-4----2/4-4-7p4-|
  . . . . .    . . . . . .    . . . . .    . . . .     . . . . .   . . . . .   
e|---------------------------------------------------------------------------|
B|---------------------------------------------------------------------------|
G|---------------------------------------------------------------------------|
D|---------------------------------------------------------------------------|
A|---------------------------------------------------------------------------|
D|---77-7-6-5-----2h4-4-4-4----2/4-4-7p4-4----2h4-4-4-4----2/4-4-7----2h4-4-4|
     .. . . .     . . . . .    . . . . . .    . . . . .    . . . .    . . . .  
e|---------------------------------------------------------------------------|
B|---------------------------------------------------------------------------|
G|---------------------------------------------------------------------------|
D|---------------------------------------------------------------------------|
A|---------------------------------------------------------------------------|
D|---2/4-4-7p4-----77-7-6----------------------------------------------------|
     . . . . .     .. . .
  Chorus:
e|---------------------------------------------------------------------------|
B|---------------------------------------------------------------------------|
G|---------------------------------------------------------------------------|
D|---------------------------------------------------------------------------|
A|---2h4-4-4-4---2/4-4-7p4-4-----2h4-4-4-4------2/4-4-7-----2h4-4-4-4--------|
D|---2h4-4-4-4---2/4-4-7p4-4-----2h4-4-4-4------2/4-4-7-----2h4-4-4-4--------|

e|---------------------------------------------------------------------------|
B|---------------------------------------------------------------------------|
G|---------------------------------------------------------------------------|
D|---------------------------------------------------------------------------|
A|---2/4-4-7p4-4-----7-7-6-5-----2h4-4-4-4-----2/4-4-7p4-4-----2h4-4-4-4-----|
D|---2/4-4-7p4-4-----7-7-6-5-----2h4-4-4-4-----2/4-4-7p4-4-----2h4-4-4-4-----|

e|---------------------------------------------------------------------------|
B|---------------------------------------------------------------------------|
G|---------------------------------------------------------------------------|
D|---------------------------------------------------------------------------|
A|---2/4-4-7-----2h4-4-4-4-----2/4-4-7p4-4-----7-7-6-5-----2h4-4-4-4---------|
D|---2/4-4-7-----2h4-4-4-4-----2/4-4-7p4-4-----7-7-6-5-----2h4-4-4-4---------|

e|---------------------------------------------------------------------------|
B|---------------------------------------------------------------------------|
G|---------------------------------------------------------------------------|
D|---------------------------------------------------------------------------|
A|---2h4-4-4-4-----2h4-4-4-4-----2h4-4-4-4-----------------------------------|
D|---2h4-4-4-4-----2h4-4-4-4-----2h4-4-4-4-----------------------------------|
  Verse
e|---------------------------------------------------------------------------|
B|---------------------------------------------------------------------------|
G|---------------------------------------------------------------------------|
D|---------------------------------------------------------------------------|
A|---------------------------------------------------------------------------|
D|---7-7-7-7-6-6-5-5-44-----7-7-7-7-6-6-5-5-44-------------------------------|
Chorus
Verse
Chorus
  Bridge
e|---------------------------------------------------------------------------|
B|---------------------------------------------------------------------------|
G|---------------------------------------------------------------------------|
D|---------------------------------------------------------------------------|
A|-------------------------------------------------------------------4-------|
D|---0-0-6-5-0-0-6-1-0-0-6-5-3-5-2-1-0-0-6-5-0-0-6-1-0-0-6-5-3-5-----4-------|
Bridge
Chorusx2
e|-----------------|
B|-----------------|
G|-----------------|
D|-----------------|
A|---4-------------|
D|---4-------------|


************************************
| .   Palm Mute
| /   slide up
| \   slide down
| h   hammer-on
| p   pull-off
| ~   vibrato
| +   harmonic
| x   Mute note
| b   Bend
| pb  Pre-bend
| br  Bend release
| pbr Pre-bend release
| brb Bend release bend

************************************
Добавлено: 28.04.2012
Другие материалы по этой песне:
  • Аккорды и текст

Страница создана 28.04.2012
http://primanota.ru/blue-stahli/anti-you-chords.htm
Привет, Гость.
Предлагаем пройти революционный курс по гитаре.
Подарок от PrimaNota.Ru, забирай!