PrimaNota.ru - самый крупный в мире бесплатный архив песенных текстов, аккордов, табулатур и нот


Blue Stahli - Ultranumb - текст песни, таба, видео

Регистрация Запомнить меня
Войти через:  Facebook Google Twitter Vk Yandex Mail.ru

Blue Stahli - Ultranumb - текст песни, таба, видео

Печатать
Просмотров: 1987
-------------------------------------------------------------------------------
                             ULTRANUMB - Blue Stahli
-------------------------------------------------------------------------------
Tabbed by: UmbilicalChord9

Tuning: Drop D

Please leave a comment if you see something that's wrong and notify me before rating. Enjoy!!



Intro (CLEAN GUITAR)
e|----------------------------------------------------|--------------------------------------|
B|----------------------------------------------------|--------------------------------------|
G|----------------------------------------------------|--------------------------------------|
D|-8-7-7-7--7-8\7-7-7--7-5--8-7--7-7--7-8\7-7-7--7-10-|-8-7-7-7--7-8\7-7-7--7-5--8-7--7-7--7-|
A|----------------------------------------------------|--------------------------------------|
D|----------------------------------------------------|--------------------------------------|

e|----------------------------------------------------|--------------------------------------|
B|----------------------------------------------------|--------------------------------------|
G|----------------------------------------------------|--------------------------------------|
D|-8-7-7-7--7-8\7-7-7--7-5--8-7--7-7--7-8\7-7-7--7-10-|-8-7-7-7--7-8\7-7-7--7-5--8-7--7-7--7-|
A|----------------------------------------------------|--------------------------------------|
D|----------------------------------------------------|--------------------------------------|

NOTE: Each bar of the clean guitar riff begins during the 1-0's made by the distortion 
guitar in the intro.


Intro (DISTORTION GUITAR)
e|---------------------------------------------------------------------------|
B|---------------------------------------------------------------------------|
G|---------------------------------------------------------------------------|
D|-1-0-----------1-0----1-0--0----1-0----------------------------------------|
A|-1-0-----------1-0----1-0--0----1-0----------------------------------------|
D|-1-0----1-0----1-0----1-0--0----1-0----------------------------------------|
          ^ ^
NOTE: That second set of notes is very synthesized or something, so you can choose to 
just play it, or palm mute it, or not play it at all.

e|---------------------------------------------------------------------------|
B|---------------------------------------------------------------------------|
G|---------------------------------------------------------------------------|
D|-1-0------3-0------5-0---------------------1-0------3-0------5-0-----------|
A|-1-0--5\--3-0--6\--5-0--10\--3--3-3-5-5----1-0--5\--3-0--6\--5-0--10\------|
D|-1-0------3-0------5-0---------------------1-0------3-0------5-0-----------|

e|---------------------------------------------------------------------------|
B|---------------------------------------------------------------------------|
G|---------------------------------------------------------------------------|
D|-1-0--0--3-0--0--5-0--0--3-3-3-3-3-5-5-5-----------------------------------|
A|-1-0--0--3-0--0--5-0--0--3-3-3-3-3-5-5-5-----------------------------------|
D|-1-0--0--3-0--0--5-0--0--3-3-3-3-3-5-5-5-----------------------------------|

e|---------------------------------------------------------------------------|
B|---------------------------------------------------------------------------|
G|---------------------------------------------------------------------------|
D|-1-0--0--3-0--0--5-0--0--3-3-3-3-3-5-5-5-7b--(slow bend)-------------------|
A|-1-0--0--3-0--0--5-0--0--3-3-3-3-3-5-5-5-5b--------------------------------|
D|-1-0--0--3-0--0--5-0--0--3-3-3-3-3-5-5-5-----------------------------------|


Verse
e|---------------------------------------------------------------------------|
B|---------------------------------------------------------------------------|
G|---------------------------------------------------------------------------|
D|-1-0--------1-0----1-0----1-0----------------------------------------------|
A|-1-0--------1-0----1-0----1-0----------------------------------------------|
D|-1-0--------1-0----1-0----1-0----------------------------------------------|


Pre-Chorus
e|---------------------------------------------------------------------------|
B|---------------------------------------------------------------------------|
G|---------------------------------------------------------------------------|
D|-1-0------3-0------5-0---------------------1-0------3-0------5-0-----------|
A|-1-0--5\--3-0--6\--5-0--10\--3--3-3-5-5----1-0--5\--3-0--6\--5-0--10\------|
D|-1-0------3-0------5-0---------------------1-0------3-0------5-0-----------|


Chorus
e|---------------------------------------------------------------------------|
B|---------------------------------------------------------------------------|
G|---------------------------------------------------------------------------|
D|-1-0--0--3-0--0--5-0--0--33333555------------------------------------------|
A|-1-0--0--3-0--0--5-0--0--33333555------------------------------------------|
D|-1-0--0--3-0--0--5-0--0--33333555------------------------------------------|

e|---------------------------------------------------------------------------|
B|---------------------------------------------------------------------------|
G|---------------------------------------------------------------------------|
D|-1-0--0--3-0--0--8-8-8-8-5-5-5-5-------------------------------------------|
A|-1-0--0--3-0--0--8-8-8-8-5-5-5-5-------------------------------------------|
D|-1-0--0--3-0--0--8-8-8-8-5-5-5-5-------------------------------------------|

e|---------------------------------------------------------------------------|
B|---------------------------------------------------------------------------|
G|---------------------------------------------------------------------------|
D|-1-0--0--3-0--0--5-0--0--33333555------------------------------------------|
A|-1-0--0--3-0--0--5-0--0--33333555------------------------------------------|
D|-1-0--0--3-0--0--5-0--0--33333555------------------------------------------|

e|---------------------------------------------------------------------------|
B|---------------------------------------------------------------------------|
G|---------------------------------------------------------------------------|
D|-1-0--0--3-0--0--3-3-3-3-0-0-0-0-7b--(slow bend)---------------------------|
A|-1-0--0--3-0--0--3-3-3-3-0-0-0-0-5b----------------------------------------|
D|-1-0--0--3-0--0--3-3-3-3-0-0-0-0-------------------------------------------|


Verse
e|---------------------------------------------------------------------------|
B|---------------------------------------------------------------------------|
G|---------------------------------------------------------------------------|
D|-1-0--------1-0----1-0----1-0----------------------------------------------|
A|-1-0--------1-0----1-0----1-0----------------------------------------------|
D|-1-0--------1-0----1-0----1-0----------------------------------------------|


Pre-Chorus
e|---------------------------------------------------------------------------|
B|---------------------------------------------------------------------------|
G|---------------------------------------------------------------------------|
D|-1-0------3-0------5-0---------------------1-0------3-0------5-0-----------|
A|-1-0--5\--3-0--6\--5-0--10\--3--3-3-5-5----1-0--5\--3-0--6\--5-0--10\------|
D|-1-0------3-0------5-0---------------------1-0------3-0------5-0-----------|


Chorus
e|---------------------------------------------------------------------------|
B|---------------------------------------------------------------------------|
G|---------------------------------------------------------------------------|
D|-1-0--0--3-0--0--5-0--0--33333555------------------------------------------|
A|-1-0--0--3-0--0--5-0--0--33333555------------------------------------------|
D|-1-0--0--3-0--0--5-0--0--33333555------------------------------------------|

e|---------------------------------------------------------------------------|
B|---------------------------------------------------------------------------|
G|---------------------------------------------------------------------------|
D|-1-0--0--3-0--0--8-8-8-8-5-5-5-5-------------------------------------------|
A|-1-0--0--3-0--0--8-8-8-8-5-5-5-5-------------------------------------------|
D|-1-0--0--3-0--0--8-8-8-8-5-5-5-5-------------------------------------------|

e|---------------------------------------------------------------------------|
B|---------------------------------------------------------------------------|
G|---------------------------------------------------------------------------|
D|-1-0--0--3-0--0--5-0--0--33333555------------------------------------------|
A|-1-0--0--3-0--0--5-0--0--33333555------------------------------------------|
D|-1-0--0--3-0--0--5-0--0--33333555------------------------------------------|

e|---------------------------------------------------------------------------|
B|---------------------------------------------------------------------------|
G|---------------------------------------------------------------------------|
D|-1-0--0--3-0--0--3-3-3-3-0-0-0-0-------------------------------------------|
A|-1-0--0--3-0--0--3-3-3-3-0-0-0-0-------------------------------------------|
D|-1-0--0--3-0--0--3-3-3-3-0-0-0-0-------------------------------------------|


Bridge (CLEAN GUITAR)
e|----------------------------------------------------|
B|----------------------------------------------------|
G|----------------------------------------------------|
D|-8-7-7-7--7-8\7-7-7--7-5--8-7--7-7--7-8\7-7-7--7-10-|
A|----------------------------------------------------|
D|----------------------------------------------------| x5

e|----------------------------------------------------|
B|----------------------------------------------------|
G|----------------------------------------------------|
D|-8-7-7-7--7-8\7-7-7--7-5--8-7--7-7------------------|
A|----------------------------------------------------|
D|----------------------------------------------------|


Bridge (DISTORTION GUITAR)
e|---------------------------------|----------------------------------|
B|---------------------------------|----------------------------------|
G|---------------------------------|----------------------------------|
D|-5-7-7-7-8-7-5-7-7-8-7-5-5-7-7-7-|-5-7-7-7-8-7-5-7-7-8-7-5-5-7-10-7-|
A|-5-7-7-7-8-7-5-7-7-8-7-5-5-7-7-7-|-5-7-7-7-8-7-5-7-7-8-7-5-5-7-10-7-|
D|-5-7-7-7-8-7-5-7-7-8-7-5-5-7-7-7-|-5-7-7-7-8-7-5-7-7-8-7-5-5-7-10-7-|

e|---------------------------------|----------------------------------|
B|---------------------------------|----------------------------------|
G|---------------------------------|----------------------------------|
D|-5-7-7-7-8-7-5-7-7-8-7-5-5-7-7-7-|-5-7-7-7-8-7-5-7-8--3--10---------|
A|-5-7-7-7-8-7-5-7-7-8-7-5-5-7-7-7-|-5-7-7-7-8-7-5-7-8--3--10---------|
D|-5-7-7-7-8-7-5-7-7-8-7-5-5-7-7-7-|-5-7-7-7-8-7-5-7-8--3--10---------|

e|---------------------------------|----------------------------------|
B|---------------------------------|----------------------------------|
G|---------------------------------|----------------------------------|
D|-5-7-7-7-8-7-5-7-7-8-7-5-5-7-7-7-|-5-7-7-7-8-7-5-7-7-8-7-5-5-7-10-7-|
A|-5-7-7-7-8-7-5-7-7-8-7-5-5-7-7-7-|-5-7-7-7-8-7-5-7-7-8-7-5-5-7-10-7-|
D|-5-7-7-7-8-7-5-7-7-8-7-5-5-7-7-7-|-5-7-7-7-8-7-5-7-7-8-7-5-5-7-10-7-|

e|---------------------------------|----------------------------------|
B|---------------------------------|----------------------------------|
G|---------------------------------|----------------------------------|
D|-5-7-7-7-8-7-5-7-7-8-7-5-5-7-7-7-|-5-7-7-7-8-7-5-7-8--10------------|
A|-5-7-7-7-8-7-5-7-7-8-7-5-5-7-7-7-|-5-7-7-7-8-7-5-7-8--10------------|
D|-5-7-7-7-8-7-5-7-7-8-7-5-5-7-7-7-|-5-7-7-7-8-7-5-7-8--10------------|


Pre-Chorus
e|---------------------------------------------------------------------------|
B|---------------------------------------------------------------------------|
G|---------------------------------------------------------------------------|
D|-1-0------3-0------5-0-------33333555--1-0------3-0------5-0---------------|
A|-1-0--5\--3-0--6\--5-0--10\--33333555--1-0--5\--3-0--6\--5-0--10\----------|
D|-1-0------3-0------5-0-------33333555--1-0------3-0------5-0---------------|


Chorus
e|---------------------------------------------------------------------------|
B|---------------------------------------------------------------------------|
G|---------------------------------------------------------------------------|
D|-1-0--0--3-0--0--5-0--0--33333555------------------------------------------|
A|-1-0--0--3-0--0--5-0--0--33333555------------------------------------------|
D|-1-0--0--3-0--0--5-0--0--33333555------------------------------------------|

e|---------------------------------------------------------------------------|
B|---------------------------------------------------------------------------|
G|---------------------------------------------------------------------------|
D|-1-0--0--3-0--0--8-8-8-8-5-5-5-5-------------------------------------------|
A|-1-0--0--3-0--0--8-8-8-8-5-5-5-5-------------------------------------------|
D|-1-0--0--3-0--0--8-8-8-8-5-5-5-5-------------------------------------------|

e|---------------------------------------------------------------------------|
B|---------------------------------------------------------------------------|
G|---------------------------------------------------------------------------|
D|-1-0--0--3-0--0--5-0--0--33333555------------------------------------------|
A|-1-0--0--3-0--0--5-0--0--33333555------------------------------------------|
D|-1-0--0--3-0--0--5-0--0--33333555------------------------------------------|

e|---------------------------------------------------------------------------|
B|---------------------------------------------------------------------------|
G|---------------------------------------------------------------------------|
D|-1-0--0--3-0--0--3-3-3-3-0-0-0-0-------------------------------------------|
A|-1-0--0--3-0--0--3-3-3-3-0-0-0-0-------------------------------------------|
D|-1-0--0--3-0--0--3-3-3-3-0-0-0-0-------------------------------------------|

e|---------------------------------------------------------------------------|
B|---------------------------------------------------------------------------|
G|---------------------------------------------------------------------------|
D|-1-0--0--3-0--0--5-0--0--33333555------------------------------------------|
A|-1-0--0--3-0--0--5-0--0--33333555------------------------------------------|
D|-1-0--0--3-0--0--5-0--0--33333555------------------------------------------|

e|---------------------------------------------------------------------------|
B|---------------------------------------------------------------------------|
G|---------------------------------------------------------------------------|
D|-1-0--0--3-0--0--8-8-8-8-5-5-5-5-------------------------------------------|
A|-1-0--0--3-0--0--8-8-8-8-5-5-5-5-------------------------------------------|
D|-1-0--0--3-0--0--8-8-8-8-5-5-5-5-------------------------------------------|

e|---------------------------------------------------------------------------|
B|---------------------------------------------------------------------------|
G|---------------------------------------------------------------------------|
D|-1-0--0--3-0--0--5-0--0--33333555------------------------------------------|
A|-1-0--0--3-0--0--5-0--0--33333555------------------------------------------|
D|-1-0--0--3-0--0--5-0--0--33333555------------------------------------------|

e|---------------------------------------------------------------------------|
B|---------------------------------------------------------------------------|
G|---------------------------------------------------------------------------|
D|-1-0-----------------------------------------------------------------------|
A|-1-0-----------------------------------------------------------------------|
D|-1-0-----------------------------------------------------------------------|
Добавлено: 18.04.2012
Другие материалы по этой песне:

Страница создана 18.04.2012
http://primanota.ru/blue-stahli/ultranumb-chords.htm
Привет, Гость.
Предлагаем пройти революционный курс по гитаре.
Подарок от PrimaNota.Ru, забирай!