PrimaNota.ru - самый крупный в мире бесплатный архив песенных текстов, аккордов, табулатур и нот


Blue Stahli - Shotgun Senorita - таба, видео

Регистрация Запомнить меня
Войти через:  Facebook Google Twitter Vk Yandex Mail.ru

Blue Stahli - Shotgun Senorita - таба, видео

Печатать
Просмотров: 1579
-------------------------------------------------------------------------------
		Shotgun senorita - Blue Stahli
-------------------------------------------------------------------------------
Tabbed by: Kwasek
Email: kwasekf@gmail.com

Tuning:CGCFAD (Drop C)

	Fig.1
D|------------------------------------------------------------------------------|
A|------------------------------------------------------------------------------|
F|------------------------------------------------------------------------------|
C|--11-----11-----11---12-----12-----15---14-----14-----14-----14-----14--------|
G|-----0-0----0-0----0----0-0----0-0----0----0-0----0-0----0-0----0-0----0-0-0-0|
C|------------------------------------------------------------------------------|

	Fig.2
D|----------------------------------------------------------------------------|
A|----------------------------------------------------------------------------|
D|----------------------------------------------------------------------------|
C|--11-----11-----11---12-----12-----8---7-----5-----8---7-----7-----7--------|
G|-----0-0----0-0----0----0-0----0-0---0---0-0---0-0---0---0-0---0-0---0------|
C|----------------------------------------------------------------------------|

	Fig.3
D|------------------------------------------------------------------------------|
A|------------------------------------------------------------------------------|
D|------------------------------------------------------------------------------|
C|--11-----11-----11---12-----12-----15---14-----17-----15---14-----14-----14---|
G|-----0-0----0-0----0----0-0----0-0----0----0-0----0-0----0----0-0----0-0----0-|
C|------------------------------------------------------------------------------|

	Fig.4
D|------------------------------------------------------------------------------|
A|------------------------------------------------------------------------------|
D|------------------------------------------------------------------------------|
C|--12--12-12--12-12-12--15--15-15--15-15-15--19--19-19--19-19-19-19-19-19-19---|
G|--12--12-12--12-12-12--15--15-15--15-15-15--19--19-19--19-19-19-19-19-19-19---|
C|--12--12-12--12-12-12--15--15-15--15-15-15--19--19-19--19-19-19-19-19-19-19---|

	Fig.5*
D|------------------------------------------------------------------------------|
A|------------------------------------------------------------------------------|
D|------------------------------------------------------------------------------|
C|-11xx-11xx-11xx-12xx-12xx-15x-14xx-14xx-14xx-14xx-14xx-14x-14x----------------|
G|-11xx-11xx-11xx-12xx-12xx-15x-14xx-14xx-14xx-14xx-14xx-14x-14x----------------|
C|-11xx-11xx-11xx-12xx-12xx-15x-14xx-14xx-14xx-14xx-14xx-14x-14x----------------|

	Fig.6*
D|-------------------------------------------------------|
A|-------------------------------------------------------|
D|-------------------------------------------------------|
C|-11xx-11xx-11xx-12xx-12xx-8x-7xx-5xx-8xx-7xx-7xx-7x----|
G|-11xx-11xx-11xx-12xx-12xx-8x-7xx-5xx-8xx-7xx-7xx-7x----|
C|-11xx-11xx-11xx-12xx-12xx-8x-7xx-5xx-8xx-7xx-7xx-7x----|

	Fig.7*
D|-----------------------------------------------------------|
A|-----------------------------------------------------------|
D|-----------------------------------------------------------|
C|-11xx-11xx-11xx-12xx-12xx-15x-14xx-17xx-15xx-14xx-14xx-14--|
G|-11xx-11xx-11xx-12xx-12xx-15x-14xx-17xx-15xx-14xx-14xx-14--|
C|-11xx-11xx-11xx-12xx-12xx-15x-14xx-17xx-15xx-14xx-14xx-14--|

	Fig.8
D|-------------------------------------------------------------------|
A|-------------------------------------------------------------------|
D|-------------------------------------------------------------------|
C|---7-------8-7-8--7--5-7--5-8--------7-------8-7-8--7--5-7--5-7----|
G|---7---5br-8-7-8--7--5-7--5-8--------7---5br-8-7-8--7--5-7--5-7----|
C|---7-------8-7-8--7--5-7--5-8--------7-------8-7-8--7--5-7--5-7----|

	Fig.9
D|---------------------|
A|---------------------|
D|---------------------|
C|---7--5h8b---7-------|
G|---7--5h8b---7-------|
C|---7--5h8b---7-------|

	Fig.10
D|----------------------|
A|----------------------|
D|----------------------|
C|----------------------|
G|-12-0-0--12-0-0--12-0-|
C|----------------------|
  (        PM          )

	Fig.11
D|------------------------------------------------------------------------|
A|------------------------------------------------------------------------|
D|------------------------------------------------------------------------|
C|--12-12-12-12-12-12--15-15-15-15-15-15--19-19-19-19-19-19-19-19-19-19---|
G|--12-12-12-12-12-12--15-15-15-15-15-15--19-19-19-19-19-19-19-19-19-19---|
C|--12-12-12-12-12-12--15-15-15-15-15-15--19-19-19-19-19-19-19-19-19-19---|
         (     PM    )      (    PM     )




Order of playing:

Fig.1     0:00-0:06
Fig.2     0:06-0:12
Fig.3  	  0:12-0:18
Fig.4 	  0:18-0:24
Fig.1 	  0:24-0:30
Fig.2 	  0:30-0:36
Fig.3 	  0:36-0:42
FIg.4 	  0:42-0:48
Fig.8  x2 0:48-1:00
Fig.1	  1:00-1:06
Fig.2	  1:06-1:12
Fig.3	  1:12-1:18
Fig.4	  1:18-1:24
Fig.8  x2 1:24-1:36
Fig.9  x2 1:36-1:48
Fig.10 x4 1:48-1:54
Fig.1	  1:54-2:00 (vol down)
Fig.2	  2:00-2:06 (vol down)
Fig.3	  2:06-2:12
Fig.11	  2:12-2:18
Fig.8	  2:18-2:44




Fig.5, 6 & 7 are alternatives to 1, 2 & 3 when the riff gets heavier. It gives a little 
feel of drums playing along.
Hope you like it.



************************************

| /   slide up
| \   slide down
| h   hammer-on
| p   pull-off
| ~   vibrato
| +   harmonic
| x   Mute note
| b   Bend
| pb  Pre-bend
| br  Bend release
| pbr Pre-bend release
| brb Bend release bend

************************************
Добавлено: 27.07.2012
Другие материалы по этой песне:
  • Аккорды и текст

Страница создана 27.07.2012
http://primanota.ru/blue-stahli/shotgun-senorita-chords.htm
Привет, Гость.
Предлагаем пройти революционный курс по гитаре.
Подарок от PrimaNota.Ru, забирай!