PrimaNota.ru - самый крупный в мире бесплатный архив песенных текстов, аккордов, табулатур и нот


Blue Stahli - Doubt - текст песни, бас-таба, видео

Регистрация Запомнить меня
Войти через:  Facebook Google Twitter Vk Yandex Mail.ru

Blue Stahli - Doubt - текст песни, бас-таба, видео

Печатать
Просмотров: 197
Уроки эстрадного вокала в Санкт-Петербурге
0:07
G|-------------------------------------------------------------------|
D|o-----------------------------------------------------------------o|
A|-------------------------------------------------------------------|
E|o-5-\-----------------------------5-r-----------------------------o|
B|-------------------------------------------------------------------|
    1 + 2 + 3 + 4 + 1 + 2 + 3 + 4 + 1 + 2 + 3 + 4 + 1 + 2 + 3 + 4 +

0:21
G|-----------------------------------------------------------------|
D|-----------------------------------------------------------------|
A|-----------------------------------------------------------------|
E|-5-\-----------------------------5-r---------------------5-r-----|
B|-----------------------------------------------------------------|
   1 + 2 + 3 + 4 + 1 + 2 + 3 + 4 + 1 + 2 + 3 + 4 + 1 + 2 + 3 + 4 +

0:29
G|-----------------------------------------------------------------|
D|-----------------------------------------------------------------|
A|--------------------------3--5-6---------------------------------|
E|-5--53-5---3-5-3-5--53-5-r-------5--53-5---3-5-3-5--53-5-r-------|
B|-----------------------------------------------------------------|
   1 + 2 + 3 + 4 + 1 + 2 + 3 + 4 + 1 + 2 + 3 + 4 + 1 + 2 + 3 + 4 +

G|-----------------------------------------------------------------|
D|-----------------------------------------------------------------|
A|--------------------------3--5-6---------------------------------|
E|-5--53-5---3-5-3-5--53-5-r-------5--53-5---3-5-3-13\-------------|
B|-----------------------------------------------------------------|
   1 + 2 + 3 + 4 + 1 + 2 + 3 + 4 + 1 + 2 + 3 + 4 + 1 + 2 + 3 + 4 +

Verse 0:44
G|-----------------------------------------------------------------|
D|-----------------------------------------------------------------|
A|-----------------------------------------------------------------|
E|-5--53-5---3-5-3-5--53-5---3-5-3-5--53-5---3-5-3-5--53-5-r-------|
B|-----------------------------------------------------------------|
   1 + 2 + 3 + 4 + 1 + 2 + 3 + 4 + 1 + 2 + 3 + 4 + 1 + 2 + 3 + 4 +

G|-----------------------------------------------------------------|
D|-----------------------------------------------------------------|
A|-----------------------------------------------------------------|
E|-5--53-5---3-5-3-5--53-5---3-5-3-5-r-------------13\-------------|
B|-----------------------------------------------------------------|
   1 + 2 + 3 + 4 + 1 + 2 + 3 + 4 + 1 + 2 + 3 + 4 + 1 + 2 + 3 + 4 +

Chorus 0:58
G|-----------------------------------------------------------------|
D|-----------------------------------------------------------------|
A|-----------------------------------------------------------------|
E|-5-5-5-5-5-5-5-5-1-1-1-1-1-1-----5-5-5-5-5-5-5-5-------------3-3-|
B|-----------------------------1-1-----------------3-3-3-3-3-3-----|
   1 + 2 + 3 + 4 + 1 + 2 + 3 + 4 + 1 + 2 + 3 + 4 + 1 + 2 + 3 + 4 +

G|-----------------------------------------------------------------|
D|-----------------------------------------------------------------|
A|-----------------------------------------------------------------|
E|-5-5-5-5-5-5-5-5-1-1-1-1-1-1-3-3-5-r-------5r-5r-5-r-------------|
B|-----------------------------------------------------------------|
   1 + 2 + 3 + 4 + 1 + 2 + 3 + 4 + 1 + 2 + 3 + 4 + 1 + 2 + 3 + 4 +

G|-----------------------------------------------------------------|
D|-----------------------------------------------------------------|
A|-----------------------------------------------------------------|
E|-5-5-5-5-5-5-5-5-1-1-1-1-1-1-----5-5-5-5-5-5-5-5-------------3-3-|
B|-----------------------------1-1-----------------3-3-3-3-3-3-----|
   1 + 2 + 3 + 4 + 1 + 2 + 3 + 4 + 1 + 2 + 3 + 4 + 1 + 2 + 3 + 4 +

G|-----------------------------------------------------------------|
D|-----------------------------------------------------------------|
A|-----------------5-5-5-5-5-5-------------------------------------|
E|-5-5-5-5-5-5-5-5-------------6-6-5-r-------5r-5r-13\-------------|
B|-----------------------------------------------------------------|
   1 + 2 + 3 + 4 + 1 + 2 + 3 + 4 + 1 + 2 + 3 + 4 + 1 + 2 + 3 + 4 +

Interlude 1:28
G|-----------------------------------------------------------------|
D|-----------------------------------------------------------------|
A|--------------------------3--5-6---------------------------------|
E|-5--53-5---3-5-3-5--53-5-r-------5--53-5---3-5-3-5---------------|
B|-----------------------------------------------------------------|
   1 + 2 + 3 + 4 + 1 + 2 + 3 + 4 + 1 + 2 + 3 + 4 + 1 + 2 + 3 + 4 +

Verse 1:35
G|-----------------------------------------------------------------|
D|-----------------------------------------------------------------|
A|-----------------------------------------------------------------|
E|-5--53-5---3-5-3-5--53-5---3-5-3-5--53-5---3-5-3-5--53-5-r-------|
B|-----------------------------------------------------------------|
   1 + 2 + 3 + 4 + 1 + 2 + 3 + 4 + 1 + 2 + 3 + 4 + 1 + 2 + 3 + 4 +

G|-----------------------------------------------------------------|
D|-----------------------------------------------------------------|
A|-----------------------------------------------------------------|
E|-5--53-5---3-5-3-5--53-5---3-5-3-5-r-------------13\-------------|
B|-----------------------------------------------------------------|
   1 + 2 + 3 + 4 + 1 + 2 + 3 + 4 + 1 + 2 + 3 + 4 + 1 + 2 + 3 + 4 +

Chorus 1:50
G|-----------------------------------------------------------------|
D|-----------------------------------------------------------------|
A|-----------------------------------------------------------------|
E|-5-5-5-5-5-5-5-5-1-1-1-1-1-1-----5-5-5-5-5-5-5-5-------------3-3-|
B|-----------------------------1-1-----------------3-3-3-3-3-3-----|
   1 + 2 + 3 + 4 + 1 + 2 + 3 + 4 + 1 + 2 + 3 + 4 + 1 + 2 + 3 + 4 +

G|-----------------------------------------------------------------|
D|-----------------------------------------------------------------|
A|-----------------------------------------------------------------|
E|-5-5-5-5-5-5-5-5-1-1-1-1-1-1-3-3-5-r-------5r-5r-5-r-------------|
B|-----------------------------------------------------------------|
   1 + 2 + 3 + 4 + 1 + 2 + 3 + 4 + 1 + 2 + 3 + 4 + 1 + 2 + 3 + 4 +

G|-----------------------------------------------------------------|
D|-----------------------------------------------------------------|
A|-----------------------------------------------------------------|
E|-5-5-5-5-5-5-5-5-1-1-1-1-1-1-----5-5-5-5-5-5-5-5-------------3-3-|
B|-----------------------------1-1-----------------3-3-3-3-3-3-----|
   1 + 2 + 3 + 4 + 1 + 2 + 3 + 4 + 1 + 2 + 3 + 4 + 1 + 2 + 3 + 4 +

G|-----------------------------------------------------------------|
D|-----------------------------------------------------------------|
A|-----------------5-5-5-5-5-5-------------------------------------|
E|-5-5-5-5-5-5-5-5-------------6-6-5-r-------5r-5r-13\-------------|
B|-----------------------------------------------------------------|
   1 + 2 + 3 + 4 + 1 + 2 + 3 + 4 + 1 + 2 + 3 + 4 + 1 + 2 + 3 + 4 +

Interlude 
G|-----------------------------------------------------------------|
D|-----------------------------------------------------------------|
A|--------------------------3--5-6---------------------------------|
E|-5--53-5---3-5-3-5--53-5-r-------5--53-5---3-5-3-5--53-5-r-------|
B|-----------------------------------------------------------------|
   1 + 2 + 3 + 4 + 1 + 2 + 3 + 4 + 1 + 2 + 3 + 4 + 1 + 2 + 3 + 4 +

G|-----------------------------------------------------------------|
D|-----------------------------------------------------------------|
A|--------------------------3--5-6---------------------------------|
E|-5--53-5---3-5-3-5--53-5-r-------5--53-5---3-5-3-13\-------------|
B|-----------------------------------------------------------------|
   1 + 2 + 3 + 4 + 1 + 2 + 3 + 4 + 1 + 2 + 3 + 4 + 1 + 2 + 3 + 4 +

Bridge 2:34
G|-----------------------------------------------------------------|
D|-----------------------------------------------------------------|
A|-----------------------------------------------------------------|
E|-0--1--0/10-0--1-0--1--0/10----3-0--1--0/10-0--1-0--1--0---------|
B|----------------------------3------------------------------------|
   Triplet Triplet Triplet Triplet Triplet Triplet Triplet Triplet

G|-----------------------------------------------------------------|
D|-----------------------------------------------------------------|
A|-----------------------------------------------------------------|
E|-0--1--0/10-0--1-0--1--0/10----3-0--1--0/10-0--1-3--33-3-6---6---|
B|----------------------------3------------------------------------|
   Triplet Triplet Triplet Triplet Triplet Triplet 1 + 2 + 3 + 4 +

G|-----------------------------------------------------------------|
D|-----------------------------------------------------------------|
A|-----------------------------------------------------------------|
E|-----------------------------------------------------------------|
B|-5-\---------------------------------------------5-\-------------|
   1 + 2 + 3 + 4 + 1 + 2 + 3 + 4 + 1 + 2 + 3 + 4 + 1 + 2 + 3 + 4 +

Chorus 2:57
G|-----------------------------------------------------------------|
D|-----------------------------------------------------------------|
A|-----------------------------------------------------------------|
E|-5-5-5-5-5-5-5-5-1-1-1-1-1-1-----5-5-5-5-5-5-5-5-------------3-3-|
B|-----------------------------1-1-----------------3-3-3-3-3-3-----|
   1 + 2 + 3 + 4 + 1 + 2 + 3 + 4 + 1 + 2 + 3 + 4 + 1 + 2 + 3 + 4 +

G|-----------------------------------------------------------------|
D|-----------------------------------------------------------------|
A|-----------------------------------------------------------------|
E|-5-5-5-5-5-5-5-5-1-1-1-1-1-1-3-3-5-r-------5r-5r-5-r-------------|
B|-----------------------------------------------------------------|
   1 + 2 + 3 + 4 + 1 + 2 + 3 + 4 + 1 + 2 + 3 + 4 + 1 + 2 + 3 + 4 +

G|-----------------------------------------------------------------|
D|-----------------------------------------------------------------|
A|-----------------------------------------------------------------|
E|-5-5-5-5-5-5-5-5-1-1-1-1-1-1-----5-5-5-5-5-5-5-5-------------3-3-|
B|-----------------------------1-1-----------------3-3-3-3-3-3-----|
   1 + 2 + 3 + 4 + 1 + 2 + 3 + 4 + 1 + 2 + 3 + 4 + 1 + 2 + 3 + 4 +

G|---------------------------------|
D|---------------------------------|
A|---------------------------------|
E|-5-5-5-5-5-5-5-5-r---------------|
B|---------------------------------|
   1 + 2 + 3 + 4 + 1 + 2 + 3 + 4 + 

3:23
G|-----------------------------------------------------------------|
D|-----------------------------------------------------------------|
A|-----------------------------------------------------------------|
E|-5-5-5-5-5-5-5-5-1-1-1-1-1-1-----5-5-5-5-5-5-5-5-------------3-3-|
B|-----------------------------1-1-----------------3-3-3-3-3-3-----|
   1 + 2 + 3 + 4 + 1 + 2 + 3 + 4 + 1 + 2 + 3 + 4 + 1 + 2 + 3 + 4 +

G|-----------------------------------------------------------------|
D|-----------------------------------------------------------------|
A|-----------------5-5-5-5-5-5-------------------------------------|
E|-5-5-5-5-5-5-5-5-------------6-6-r-------------------------------|
B|-----------------------------------------------------------------|
   1 + 2 + 3 + 4 + 1 + 2 + 3 + 4 + 1 + 2 + 3 + 4 + 1 + 2 + 3 + 4 +

Rest

Outro 3:41
G|-----------------------------------------------------------------|
D|-----------------------------------------------------------------|
A|--------------------------3--5-6---------------------------------|
E|-5--53-5---3-5-3-5--53-5-r-------5--53-5---3-5-3-5--53-5-r-------|
B|-----------------------------------------------------------------|
   1 + 2 + 3 + 4 + 1 + 2 + 3 + 4 + 1 + 2 + 3 + 4 + 1 + 2 + 3 + 4 +

G|-----------------------------------------------------------------|
D|-----------------------------------------------------------------|
A|--------------------------3--5-6---------------------------------|
E|-5--53-5---3-5-3-5--53-5-r-------5--53-5---3-5-3--5r5r5r5r5r5r5r-|
B|-----------------------------------------------------------------|
   1 + 2 + 3 + 4 + 1 + 2 + 3 + 4 + 1 + 2 + 3 + 4 + 1 + 2 + 3 + 4 +

G|---------------------------------|
D|---------------------------------|
A|---------------------------------|
E|-5-\-----------------------------|
B|---------------------------------|
   1 + 2 + 3 + 4 + 1 + 2 + 3 + 4 + 
Tabbed by Dave Vucko
Добавлено: 03.08.2015
Другие материалы по этой песне:

Страница создана 03.04.2012
http://primanota.ru/blue-stahli/doubt-chords.htm
Привет, Гость.
Предлагаем пройти революционный курс по гитаре.
Подарок от PrimaNota.Ru, забирай!