PrimaNota.ru - самый крупный в мире бесплатный архив песенных текстов, аккордов, табулатур и нот


Blue Stahli - Down In Flames - таба, бас-таба, видео

Регистрация Запомнить меня
Войти через:  Facebook Google Twitter Vk Yandex Mail.ru

Blue Stahli - Down In Flames - таба, бас-таба, видео

Печатать
Просмотров: 536
Drop D Tuning (DADGBE)

E----------------------------------------------------------|
B----------------------------------------------------------|
G----------------------------------------------------------|
D------------3-2-------------------------3-2---------------|
A-2-2-0-2--0-----3-2-3-3-2-2--2-2-0-2--0-----3-2-3-0-2-0-2-|
D----------------------------------------------------------|

E------------------------------------------------------|
B------------------------------------------------------|
G------------------------------------------------------|
D------------3-2---------------------------------------|
A-2-2-0-2--0-----3-2-3-3-2-2--5-5--5-5-5--5-4-4--4-4-4-|
D------------------------------------------------------|
Добавлено: 02.09.2015
Другие материалы по этой песне:
  • Аккорды и текст

Страница создана 27.06.2015
http://primanota.ru/blue-stahli/down-in-flames-chords.htm
Привет, Гость.
Предлагаем пройти революционный курс по гитаре.
Подарок от PrimaNota.Ru, забирай!