PrimaNota.ru - самый крупный в мире бесплатный архив песенных текстов, аккордов, табулатур и нот


Blue Stahli - Rockstar - таба, видео

Регистрация Запомнить меня
Войти через:  Facebook Google Twitter Vk Yandex Mail.ru

Blue Stahli - Rockstar - таба, видео

Печатать
Просмотров: 135
-------------------------------------------------------------------------------
                             Rockstar by Blue Stahli
-------------------------------------------------------------------------------
Tabbed by: EK


This has to be the easiest song off the album, so I don't think I need to make a guitar cover/guitar pro.
I'm going to try and cover as much as I can from "The Devil," so look for those tabs as well.

Tuning: Drop C# (C# G# C# F# A# D#)


Intro:

D#|--------------------------------------------------------------------------------------------
A#|--------------------------------------------------------------------------------------------
F#|--------------------------------------------------------------------------------------------
C#|---0--0----------------0--0----------------0-0--0--0--0----------------0--0-----------------
G#|---0--0----------------0--0----------------0-0--0--0--0----------------0--0-----------------
C#|---0--0----------------0--0----------------0-0--0--0--0----------------0--0-----------------
                                              . .  .

----------------------------------------------------------------------------------------------------
----------------------------------------------------------------------------------------------------
----------------------------------------------------------------------------------------------------
---0--0----------------0--0--------3-3-3-3-3-3-5-5-5-5-5-5--0-0-0-0--------0-0-0-0--------0-0-0-0---
---0--0----------------0--0--------3-3-3-3-3-3-5-5-5-5-5-5--0-0-0-0--------0-0-0-0--------0-0-0-0---
---0--0----------------0--0--------3-3-3-3-3-3-5-5-5-5-5-5--0-0-0-0--------0-0-0-0--------0-0-0-0---
                                   . . . . . . . . . . . .  . . . .        . . . .        . . . .

---------------------------------------------------------------------------|
---------------------------------------------------------------------------|
---------------------------------------------------------------------------|
---3-3-3-3-3-3--5--5--5\---------------------------------------------------|
---3-3-3-3-3-3--5--5--5\---------------------------------------------------|
---3-3-3-3-3-3--5--5--5\---------------------------------------------------|
   . . . . . .

The guitars break off into the Main Riff of the song from here.

Main Riff:

D#|----------------------------------------------------------------------------------------------------|
A#|----------------------------------------------------------------------------------------------------|
F#|----------------------------------------------------------------------------------------------------|
C#|-------------------------------------------------------------------------8-8-8-8-8-8-10-10-10-10\---|
G#|-------------------------------------------------------------------------8-8-8-8-8-8-10-10-10-10\---|
C#|---0--/12\--3h5-5--3h5-5--0--/12\--3h5-5--3h5-5--0--/12\--3h5-5--3h5-5---8-8-8-8-8-8-10-10-10-10\---|

Power chord variation: (played only at 0:37 and 3:30)

D#|-------------------------------------------------------------------------------------------------|
A#|-------------------------------------------------------------------------------------------------|
F#|-------------------------------------------------------------------------------------------------|
C#|---0--/12--3h5-5--3h5-5--0--/12--3h5-5--3h5-5--0--/12--3h5-5--3h5-5---8-8-8-8-8-8-10-10-10-10\---|
G#|---0--/12--3h5-5--3h5-5--0--/12--3h5-5--3h5-5--0--/12--3h5-5--3h5-5---8-8-8-8-8-8-10-10-10-10\---|
C#|---0--/12--3h5-5--3h5-5--0--/12--3h5-5--3h5-5--0--/12--3h5-5--3h5-5---8-8-8-8-8-8-10-10-10-10\---|

Verses 1 and 2:

D#|--------------------------------------------------------------------------------------------------------|
A#|--------------------------------------------------------------------------------------------------------|
F#|--------------------------------------------------------------------------------------------------------|
C#|---0--0--------0--0------0---0--3--3--------5--5----3-3-3-3-0--0--------0--0------0---0--3--3------5--5-|
G#|---0--0--------0--0------0---0--3--3--------5--5----3-3-3-3-0--0--------0--0------0---0--3--3------5--5-|
C#|---0--0--------0--0------0---0--3--3--------5--5----3-3-3-3-0--0--------0--0------0---0--3--3------5--5-|
                            .   .                      . . . .                       .   .

Pre-chorus:

D#|----------------------------------------------------------------------------------5*5*5*5*5*5*---|
A#|----------------------------------------------------------------------------------5*5*5*5*5*5*---|
F#|----------------------------------------------------------------------------------5*5*5*5*5*5*---|
C#|---------------------------------------------------------------------------5--5\--x-x-x-x-x-x----|
G#|---------------------------------------------------------------------------5--5\--x-x-x-x-x-x----|
C#|---0-0-0-0-0-0-3-3-3-3-3-3-5-5-5-5-5-5-3-3-3-3-3-3-0-0-0-0-0-0-3-3-3-3-3-3-5--5\--x-x-x-x-x-x----|

Chorus: (you can play power chords if you want to)

D#|------------------------------------------------------------------------------
A#|------------------------------------------------------------------------------
F#|------------------------------------------------------------------------------
C#|------------------------------------------------------------------------------
G#|-------------------------------------------------------------------0----------
C#|---0--0-0--0-0--0-0--0-0--0-0--0-0--0-0--3--3-3--3-3--3-3--5b--3-5---5b--3b---


----------------------------------------------------------------|
----------------------------------------------------------------|
----------------------------------------------------------------|
-----------------------------------------------------------5\---|
-----------------------------------------------------------5\---|
---0--0-0--0-0--0-0--0-0--0-0--0-0--0-0--3--3-3--3-3--3-3--5\---|

After the Chorus, the guitars jump back into the Main Riff, then the Verse, then the Pre-Chorus,
then the Chorus again, then the Main Riff again, until, finally, we reach this awesome bridge riff.

Bridge:

D#|---------------------------------------------------------------------------------------------------
A#|---------------------------------------------------------------------------------------------------
F#|---------------------------------------------------------------------------------------------------
C#|---------------------------------------3-----------------------------------------------------------
G#|---------4-----------4-----------4-------4-3--------------4-----------4-----3-3-3-3-3-3-3----------
C#|---5-3-5---5-3-5-3-5---5-3-5-3-5---5-3-------6-5-3--5-3-5---5-3-5-3-5---5-3---------------6-6-6b---


--------------------------------------------------------------------------------------
--------------------------------------------------------------------------------------
----------------------------------------------------------------------/17-17-17-17b---
---------------------------------------3------------8--------10--------x--x--x--x-----
---------4-----------4-----------4-------4-3--------8-(x12)--10-(x6)--/15-15-15-15b---
---5-3-5---5-3-5-3-5---5-3-5-3-5---5-3-------6-5-3--8--------10-----------------------

Repeat that entire thing, except on the second time keep playing the 10th fret power chord instead of playing
the 15th fret octave. (Listen to song if you don't know what I'm saying)

After that, play the Chorus again (the ending chorus is a little different, but I'm sure you can figure it out)
then play the Main Riff once, then the power chord variation of the Main Riff once, then play the Outro.

Outro:

D#|------------------------------------------|
A#|------------------------------------------|
F#|---/12b-----------------------------------|
C#|----------------5-5-5-5-5-5--5--0--3--0---|
G#|----------------5-5-5-5-5-5--5--0--3--0---|
C#|----------------5-5-5-5-5-5--5--0--3--0---|
                   . . . . . .


I hope this helped! Don't forget to rate and comment on the tab to help me see how I'm doing with my tabs.
Like I said, I'll probably be tabbing most of "The Devil," but if you have any suggestions or want me to tab
one song off that album before another, then definitely leave a comment! 

                                                    

TAB LEGEND
-------------------
.     Palm mute
/     Slide up
\     Slide down
b     Bend
*     Natural Harmonic
-------------------
Добавлено: 07.05.2016
Другие материалы по этой песне:
  • Аккорды и текст

Страница создана 07.05.2016
http://primanota.ru/blue-stahli/rockstar-chords.htm
Привет, Гость.
Предлагаем пройти революционный курс по гитаре.
Подарок от PrimaNota.Ru, забирай!