PrimaNota.ru - самый крупный в мире бесплатный архив песенных текстов, аккордов, табулатур и нот


Blue Stahli - Shoot Em Up - таба, видео

Регистрация Запомнить меня
Войти через:  Facebook Google Twitter Vk Yandex Mail.ru

Blue Stahli - Shoot Em Up - таба, видео

Печатать
Просмотров: 109
-------------------------------------------------------------------------------
                             Shoot Em Up by Blue Stahli
-------------------------------------------------------------------------------
Tabbed by: EK

EDIT 12/9/15: I went back and fixed the Main Riff. My original version of the riff was close, but now I'm 
one hundred percent sure it is correct. Also I cleaned up the measure bars a little bit.


Tuning: Drop A# (A# F A# D# G C)
NOTE: This tuning is rather low and can be too low for certain guitars. I used a PitchFork Electro-Harmonix
pedal to reach this tuning because my strings were not made for tunings like this. Tune at your own risk!

Intro/Main Riff:

C |------------------------------|--------------------------------|
G |------------------------------|--------------------------------|
D#|------------------------------|--------------------------------|
A#|---------7--------------7-----|---------7----------------------|
F |-----3-0---0--0-----3-0-------|-----3-0---0--0-6-0-6-5-0-5-3b--|
A#|-5-7------------5-7-------8b--|-5-7----------------------------|

The first time he plays it with only one guitar at half volume.

Verse I Riff:

C |--------------------|--------------------5*-|--------------------|-------------------|
G |--------------------|-----------------------|--------------------|-------------------|
D#|--------------------|------------------5*---|--------------------|-------------------|
A#|--------------------|-----------------------|--------------------|-------------------|
F |-0--3--5br--0-0-3-0-|-0--3--5br------0------|-0--3--5br--0-0-3-0-|-0--3--5br------0--|
A#|--------------------|------------5-5--------|--------------------|------------5-5----|

Short and sweet. If you'd prefer to, you can play power chords instead of single notes.

Pre-Chorus:

C |-----------|
G |-----------|
D#|-----------|
A#|--7-7-7-7--|
F |--7-7-7-7--|
A#|--7-7-7-7--|
     . . . .

Play that eight times and you've got your Pre-Chorus. 

Chorus: 

C |-------------------------------------------------|--------------------------------------------------|
G |-------------------------------------------------|--------------------------------------------------|
D#|-12-14-14-14-14-14-12-14-14-14-14-14-14-14-14-14-|--------------------------------------------------|
A#|-12-14-14-14-14-14-12-14-14-14-14-14-14-14-14-14-|-10-12-12-12-12-12-10-12-12-12-12-12-12-12-12-12--|
F |-10-12-12-12-12-12-10-12-12-12-12-12-12-12-12-12-|-10-12-12-12-12-12-10-12-12-12-12-12-12-12-12-12--|
A#|-------------------------------------------------|-10-12-12-12-12-12-10-12-12-12-12-12-12-12-12-12--|

-----------------------------------------------|-----------------------------------------|------|
-----------------------------------------------|-----------------------------------------|------|
-7-10-10-10-10-10-7-10-10-10-10-10-10-10-10-10-|-10-12-12-12-12-12-10-12-12-12-12-12-12--|-17b--|
-7-10-10-10-10-10-7-10-10-10-10-10-10-10-10-10-|-10-12-12-12-12-12-10-12-12-12-12-12-12--|-x----|
-5--8--8--8--8--8-5--8--8--8--8--8--8--8--8--8-|--8-10-10-10-10-10--8-10-10-10-10-10-10--|-15b--|
-----------------------------------------------|-----------------------------------------|------|

Basically, he plays this entire thing twice for the first two choruses and four times for the third chorus.

After the first chorus, play the Main Riff again, then go into Verse II.


Verse II Riff: (almost exactly the same as Verse I but with different harmonics)

C |--------------------|------------------2*-2*-|--------------------|-------------------|
G |--------------------|------------------2*-2*-|--------------------|-------------------|
D#|--------------------|------------------2*-2*-|--------------------|-------------------|
A#|--------------------|------------------------|--------------------|-------------------|
F |-0--3--5br--0-0-3-0-|-0--3--5br------0-------|-0--3--5br--0-0-3-0-|-0--3--5br------0--|
A#|--------------------|------------5-5---------|--------------------|------------5-5----|

After that, he plays the Pre-Chorus again, then goes into the Chorus. Afterwards, he dives into this awesome 
bridge (it's amazing how Blue Stahli bridges and interludes never fail to impress me).

Bridge:

C |-----------------------------|-----------------------------|-----------------------------|
G |-----------------------------|-----------------------------|-----------------------------|
D#|-----------------------------|-----------------------------|-----------------------------|
A#|-0-0------3b-----------------|-0-0------3b--------5-3-0----|-0-0------3b-----------------|
F |-0-0--3h5-----5-3------------|-0-0--3h5-----5-3---------3b-|-0-0--3h5-----5-3------------|
A#|-0-0--------------0-3-5-0-6b-|-0-0--------------0----------|-0-0--------------0-3-5-0-6b-|

--------------------------------|
--------------------------------|
--------------------------------|
-0-0----------------------------|
-0-0----------------------------|
-0-0--3-5-0-5-7-0-7-10-0-10-12\-|

This riff is repeated multiple times.

At the end of the Bridge, the guitars change it up a little, but are heavily messed with (just listen).
This is the closest I can come to recreating the riff with absolutely no weird effects:

C |---------------------15---|
G |---------------------18b--|
D#|--------------------------|
A#|-3-3-x-x-x-x-5-5-x-x------|
F |-3-3-x-x-x-x-5-5-x-x------|
A#|-3-3-x-x-x-x-5-5-x-x------|

Then, after repeating the Chorus four times, we finally end it off with the Main Riff again.
Bret closes the song off with a small variation of the Main Riff:

C |------------------------------|-------------------------------|---------------------------------|
G |------------------------------|-------------------------------|---------------------------------|
D#|------------------------------|-------------------------------|---------------------------------|
A#|---------7--------------7-----|---------7---------------------|---------------------------------|
F |-----3-0---0--0-----3-0-------|-----3-0---0--0-6-0-6-5-0-5-3b-|-6-0-6-5-0-5-3b---6-0-6-5-0-5-3b-|
A#|-5-7------------5-7-------8b--|-5-7---------------------------|---------------------------------|

-------------------------------|
-------------------------------|
-2-----------------------------|
-2-----------------------------|
-0-----------------------------|
-------------------------------|

I hope this tab helped you! Don't forget to rate and comment as I do greatly appreciate all of that. I'm
planning to tab out most of "The Devil" like I've said before, so if you have any suggestions or want me
to tab out one song off that album before another, then post that in your comment.


TAB LEGEND
-------------------
.     Palm mute
h     Hammer-on
\     Slide down
b     Bend
br    Bend release 
*     Natural Harmonic
x     Dead note
-------------------
Добавлено: 07.05.2016
Другие материалы по этой песне:
  • Аккорды и текст

Страница создана 07.05.2016
http://primanota.ru/blue-stahli/shoot-em-up-chords.htm
Привет, Гость.
Предлагаем пройти революционный курс по гитаре.
Подарок от PrimaNota.Ru, забирай!