PrimaNota.ru - самый крупный в мире бесплатный архив песенных текстов, аккордов, табулатур и нот


Blue Stahli - Not Over Til We Say So - таба, видео

Регистрация Запомнить меня
Войти через:  Facebook Google Twitter Vk Yandex Mail.ru

Blue Stahli - Not Over Til We Say So - таба, видео

Печатать
Просмотров: 98
-------------------------------------------------------------------------------
                    Not Over Till We Say So by Blue Stahli
-------------------------------------------------------------------------------
Tabbed by: EK


Tuning: Drop C# (C# G# C# F# A# D#)

NOTE: The main riff of this song contains triplets, which are sets of three notes played in the time span
of two notes. It is rather rapid, but it's easy once you get it down. 

Intro:

D#|-------------------------------------------|----------------------------------------------|
A#|-------------------------------------------|----------------------------------------------|
F#|-------------------------------------------|----------------------------------------------|
C#|-------------------------------------5-5-5-|----------------------6-6-6-------------------|
G#|----5-5-5-7-7-7-8-8-8----5-5-5-7-7-7-------|----5-5-5-7-7-7-8-8-8-------8-8-8-7-7-7-5-5-5-|
C#|-2--------------------2--------------------|-2--------------------------------------------|
    .  . . . . . . . . . .  . . . . . . . . .   .  . . . . . . . . . . . . . . . . . . . . .

-----------------------------------------------|------------------------------------------------|
-----------------------------------------------|------------------------------------------------|
-----------------------------------------------|------------------------------------------------|
-----------------------------------------5-5-5-|------------------------6-6-6-------------------|
------5-5-5-7-7-7-8-8-8------5-5-5-7-7-7-------|------5-5-5-7-7-7-8-8-8-------8-8-8-7-7-7-5-5-5-|
-2-2--------------------2-2--------------------|-2-2--------------------------------------------|
 . .  . . . . . . . . . . .  . . . . . . . . .   . .  . . . . . . . . . . . . . . . . . . . . .


-----------------------------------------------|------------------------------------------------|
-----------------------------------------------|------------------------------------------------|
-----------------------------------------------|------------------------------------------------|
-----------------------------------------5-5-5-|------------------------6-6-6-------------------|
------5-5-5-7-7-7-8-8-8------5-5-5-7-7-7-------|------5-5-5-7-7-7-8-8-8-------8-8-8-7-7-7-5-5-5-|
-2-2--------------------2-2--------------------|-2-2--------------------------------------------|
 . .  . . . . . . . . . . .  . . . . . . . . .   . .  . . . . . . . . . . . . . . . . . . . . .


-----------------------------------------------|------------------------------------------------|
-----------------------------------------------|------------------------------------------------|
-----------------------------------------------|------------------------------------------------|
-----------------------------------------5-5-5-|------------------------------------------------|
------5-5-5-7-7-7-8-8-8------5-5-5-7-7-7-------|------5-5-5-7-7-7-8-8-8-------------------------|
-2-2--------------------2-2--------------------|-2-2--------------------------------------------|
 . .  . . . . . . . . . . .  . . . . . . . . .   . .  . . . . . . . . . 


-------------------------------------------------|-------------------------------------------------|
-------------------------------------------------|-------------------------------------------------|
-------------------------------------------------|-------------------------------------------------|
-------------------------------------------5-5-5-|-------------------------6-6-6-------------------|
-------5-5-5-7-7-7-8-8-8-------5-5-5-7-7-7-------|-------5-5-5-7-7-7-8-8-8-------8-8-8-7-7-7-5-5-5-|
-2-2-2-------------------2-2-2-------------------|-2-2-2-------------------------------------------|


-------------------------------------------------|----------------------------17p0-13p0-12p0-10h12-|
-------------------------------------------------|-------------------------------------------------|
-------------------------------------------------|-------------------------------------------------|
-------------------------------------------5-5-5-|-------------------------------------------------|
-------5-5-5-7-7-7-8-8-8-------5-5-5-7-7-7-------|-------5-5-5-7-7-7-8-8-8-------------------------|
-2-2-2-------------------2-2-2-------------------|-2-2-2-------------------------------------------|


Pre-Verse:

D#|-------------------------------|-------------------------------|--------------------------------|
A#|-------------------------------|-------------------------------|--------------------------------|
F#|-------------------------------|-------------------------------|--------------------------------|
C#|-0h2----2/3--------------------|-0h2----2/3--------------------|-0h2----2/3---------------------|
G#|-0h2----2/3--------------------|-0h2----2/3--------------------|-0h2----2/3---------------------|
C#|-0h2----2/3----2/3-0-2/3-0-2/3-|-0h2----2/3----2/3-0-2/3-0-2/3-|-0h2----2/3----2/3-0-2/3-0-2/3--|


-------------------------------|
-------------------------------|
-------------------------------|
-0h2---------------------------|
-0h2---------------------------|
-0h2---------------------------|


Verse:

D#|--------------------|--------------------|--------------------|----------------------------|
A#|--------------------|--------------------|--------------------|----------------------------|
F#|--------------------|--------------------|--------------------|----------------------------|
C#|-0h2----------------|-0h2----------------|-0h2----------------|-0h2------------------------|
G#|-0h2----------------|-0h2----------------|-0h2----------------|-0h2------------------------|
C#|-0h2----------------|-0h2----------------|-0h2----------------|-0h2--------2/3-0-2/3-0-2/3-|


--------------------|--------------------|--------------------|
--------------------|--------------------|--------------------|
--------------------|--------------------|--------------------|
-0h2----------------|-0h2----------------|-0h2----------------|
-0h2----------------|-0h2----------------|-0h2----------------|
-0h2----------------|-0h2----------------|-0h2----------------|

There's a little synth part that comes in during the second half of the verse; I've transcribed it here.

D#|-10h12p0-10h12p0-13p0-10h12p0-10h12p0-15p0-|-10h12p0-10h12p0-13p0-10h12p0-10h12p0-15p0-|
A#|-------------------------------------------|-------------------------------------------|
F#|-------------------------------------------|-------------------------------------------|
C#|-------------------------------------------|-------------------------------------------|
G#|-------------------------------------------|-------------------------------------------|
C#|-------------------------------------------|-------------------------------------------|

-10h12p0-10h12p0-13p0-10h12p0-10h12p0-15p0-|
-------------------------------------------|
-------------------------------------------|
-------------------------------------------|
-------------------------------------------|
-------------------------------------------|


Chorus:

D#|-----------------|-----------------|-----------------|-----------------|-----------------|
A#|-----------------|-----------------|-----------------|-----------------|-----------------|
F#|-----------------|-----------------|-----------------|-----------------|-----------------|
C#|-2-2-2-2-2-2-2-2-|-5-5-5-5-5-5-5-5-|-0-0-0-0-0-0-0-0-|-7-7-7-7-7-7--5\-|-2-2-2-2-2-2-2-2-|
G#|-2-2-2-2-2-2-2-2-|-5-5-5-5-5-5-5-5-|-0-0-0-0-0-0-0-0-|-7-7-7-7-7-7--5\-|-2-2-2-2-2-2-2-2-|
C#|-2-2-2-2-2-2-2-2-|-5-5-5-5-5-5-5-5-|-0-0-0-0-0-0-0-0-|-7-7-7-7-7-7--5\-|-2-2-2-2-2-2-2-2-|

-----------------|-------------------------|
-----------------|-------------------------|
-----------------|-------------------------|
-5-5-5-5-5-5-5-5-|-12-12-12-12-12-12-12-7\-|
-5-5-5-5-5-5-5-5-|-12-12-12-12-12-12-12-7\-|
-5-5-5-5-5-5-5-5-|-12-12-12-12-12-12-12-7\-|

 
Post-Chorus:

D#|-------------------------------------------------|-------------------------------------------------|
A#|-------------------------------------------------|-------------------------------------------------|
F#|-------------------------------------------------|-------------------------------------------------|
C#|-------------------------------------------5-5-5-|-------------------------6-6-6-------------------|
G#|-------5-5-5-7-7-7-8-8-8-------5-5-5-7-7-7-------|-------5-5-5-7-7-7-8-8-8-------8-8-8-7-7-7-5-5-5-|
C#|-2-2-2-------------------2-2-2-------------------|-2-2-2-------------------------------------------|


-------------------------------------------------|----------------------------17p0-13p0-12p0-10h12-|
-------------------------------------------------|-------------------------------------------------|
-------------------------------------------------|-------------------------------------------------|
-------------------------------------------5-5-5-|-------------------------------------------------|
-------5-5-5-7-7-7-8-8-8-------5-5-5-7-7-7-------|-------5-5-5-7-7-7-8-8-8-------------------------|
-2-2-2-------------------2-2-2-------------------|-2-2-2-------------------------------------------|

The second time around there's a harmony played along with the riff:

D#|-------------------------------------------------------------------------------|
A#|-------------------------------------------------------------------------------|
F#|----------------------------------------------7-7-7----------------------------|
C#|-------7-7-7-9-9-9-10-10-10-------7-7-7-9-9-9-------------7-7-7-9-9-9-10-10-10-|
G#|-------------------------------------------------------------------------------|
C#|-2-2-2----------------------2-2-2-------------------2-2-2----------------------|


Afterwords, repeat the Pre-Verse, then the Verse, then the Chorus, until finally we reach this bridge riff.


Bridge: (heavy, heavy distortion w/ a ton of gain)

D#|---------------------------------|---------------------------------|---------------------------------|
A#|---------------------------------|---------------------------------|---------------------------------|
F#|---------------------------------|---------------------------------|---------------------------------|
C#|---------------------------------|-----------------------------3p2-|---------------------------------|
G#|-----5-----5-----5-----5-----5h7-|-----5-----5-----5-----5---------|-----5-----5-----5-----5-----5h7-|
C#|-2-2---2-2---2-2---2-2---2-2-----|-2-2---2-2---2-2---2-2---2-2-----|-2-2---2-2---2-2---2-2---2-2-----|
    . . . . . . . . . . . . . .           . . . . . . . . . . . .       . . . . . . . . . . . . . .     

---------------------------------|-------------------------------|-------------------------------|
---------------------------------|-------------------------------|-------------------------------|
---------------------------------|-------------------------------|-------------------------------|
-2-2-2-2-2-2-2-2-2---------------|----------------------------5\-|-----------------6-------------|
-2-2-2-2-2-2-2-2-2---------------|-----5---7---8\-----5---7------|-----5---7---8-------8---7---5-|
-2-2-2-2-2-2-2-2-2--------14\----|-2-2---2--------2-2---2--------|-2-2---2-----------------------|
 . . . . . . . . 

-------------------------------|-------------------------------|----------------------------------------|
-------------------------------|-------------------------------|----------------------------------------|
-------------------------------|-------------------------------|----------------------------------------|
----------------------------5\-|----------------7--------------|-2--7--7--9--9--10\--2--7--7--9--9--12\-|
-----5---7---8\-----5---7------|-----5---7---8----8-7-8-7-5-8\-|-2--5--5--7--7---8\--2--5--5--7--7--10\-|
-2-2---2--------2-2---2--------|-2-2---2-----------------------|-2-------------------2------------------|

---------------------------------|----------------------------------------|-------------------|
---------------------------------|----------------------------------------|-------------------|
---------------------------------|----------------------------------------|-------------------|
-2--7--7--9--9--10--13--10--9--7-|-2--7--7--9--9--10\--2--7--7--9--9--12\-|-2--7--7--9--9--10-|
-2--5--5--7--7---8--11---8--7--5-|-2--5--5--7--7---8\--2--5--5--7--7--10\-|-2--5--5--7--7---8-|
-2-------------------------------|-2-------------------2------------------|-2-----------------|

He repeats the Chorus twice, then he plays this Outro.


Outro: (there are two guitars in this part, so I'll put both of them here)

Guitar I:
D#|-------------------------------------------------|-------------------------------------------------|
A#|-------------------------------------------------|-------------------------------------------------|
F#|-------------------------------------------------|-------------------------------------------------|
C#|-------------------------------------------5-5-5-|-------------------------6-6-6-------------------|
G#|-------5-5-5-7-7-7-8-8-8-------5-5-5-7-7-7-------|-------5-5-5-7-7-7-8-8-8-------8-8-8-7-7-7-5-5-5-|
C#|-2-2-2-------------------2-2-2-------------------|-2-2-2-------------------------------------------|


-------------------------------------------------|---------------------------------------|
-------------------------------------------------|---------------------------------------|
-------------------------------------------------|---------------------------------------|
-------------------------------------------5-5-5-|-------------------------6---3---2---0-|
-------5-5-5-7-7-7-8-8-8-------5-5-5-7-7-7-------|-------5-5-5-7-7-7-8-8-8-6---3---2---0-|
-2-2-2-------------------2-2-2-------------------|-2-2-2-------------------6---3---2---0-|

-------------------------------|-------------------------------|-------------------------------|
-------------------------------|-------------------------------|-------------------------------|
-------------------------------|-------------------------------|-------------------------------|
-6---3---2---0---6---3---2---0-|-3-----------------------------|--------------------------3--2-|
-6---3---2---0---6---3---2---0-|-3-----------------------------|--------------------------3--2-|
-6---3---2---0---6---3---2---0-|-3-----------------------------|--------------------------3--2-|

Guitar II:
D#|-------------------------------------------------|-------------------------------------------------|
A#|-------------------------------------------------|-------------------------------------------------|
F#|-------------------------------------------------|-------------------------------------------------|
C#|-------------------------------------------5-5-5-|-------------------------6-6-6-------------------|
G#|-------5-5-5-7-7-7-8-8-8-------5-5-5-7-7-7-------|-------5-5-5-7-7-7-8-8-8-------8-8-8-7-7-7-5-5-5-|
C#|-2-2-2-------------------2-2-2-------------------|-2-2-2-------------------------------------------|

---------------------------------------------------|--------------------------------------------|
---------------------------------------------8-8-8-|--------------------------------------------|
-------7-7-7-9-9-9-10-10-10------7-7-7-9-9-9-------|-------7-7-7-9-9-9-10-10-10-13---10---9---7-|
---------------------------------------------------|----------------------------13---10---9---7-|
---------------------------------------------------|----------------------------11----8---7---5-|
---------------------------------------------------|--------------------------------------------|

-----------------------------------|-----------------------------------|-----------------------------------|
-----------------------------------|-----------------------------------|--------------------------------3*-|
-13---10---9---7---13---10---9---7-|-10b-------------------------------|------------------------10--9\-----|
-13---10---9---7---13---10---9---7-|-10b-------------------------------|------------------------10--9\-----|
-11----8---7---5---11----8---7---5-|--8b-------------------------------|-------------------------8--7\-----|
-----------------------------------|-----------------------------------|-----------------------------------|
                                     (slowly bend this power chord)                  



I hope this helped! I appreciate all feedback (the only reason I made this tab is because of feedback
actually) so leave a comment, rating, etc. I will be trying to cover most of "The Devil" by Blue Stahli,
so keep an eye out for future Blue Stahli tabs.

TAB LEGEND
-------------------
.     Palm mute
h     Hammer-on
p     Pull-off
/     Slide up
\     Slide down
b     Bend
*     Natural Harmonic
-------------------
Добавлено: 07.05.2016
Другие материалы по этой песне:
  • Аккорды и текст

Страница создана 07.05.2016
http://primanota.ru/blue-stahli/not-over-til-we-say-so-chords.htm
Привет, Гость.
Предлагаем пройти революционный курс по гитаре.
Подарок от PrimaNota.Ru, забирай!