PrimaNota.ru - самый крупный в мире бесплатный архив песенных текстов, аккордов, табулатур и нот


Wolfmother - Love Train - текст песни, таба, бас-таба, видео

Регистрация Запомнить меня
Войти через:  Facebook Google Twitter Vk Yandex Mail.ru

Wolfmother - Love Train - текст песни, таба, бас-таба, видео

Печатать
Просмотров: 216
Авторы: Myles Heskett, Chris Ross, Andrew Stockdale

Band: Wolfmother                                                 Zep8001
Song: Love Train

Legend
Bend: ^
Hammer On: h
Pull Off: p
Slide up: /
Slide Down: \   
Vibrato: ~



Tabbed by Cunno

I think this is 100% correct!

Main Riff
                             Play 4 times
 e|------------------------------------|
 B|------------------------------------|
 G|------------------------------------|
 D|------------------------------------|
 A|--------8h10--10---8\6--------------|
 E|--8--8-----------------8-11^---8h6--|


Verse 0:21
                                           Play 2 times
 e|-------------|------------------------------------|
 B|-------------|------------------------------------|
 G|-------------|------------------------------------|
 D|-------------|------------------------------------|
 A|-------------|--------8h10--10---8\6---6^---------|
 E|--8----------|--8--8-----------------8-------8h6--|
          

Chorus 0:42                               Play 2 times

 e|-------------|------------|----------------------------|
 B|-------------|------------|----------------------------|
 G|--11---------|--12---11---|----------------------------|
 D|--12---------|--13---12---|----------------------------|
 A|--12---------|--13---12---|------8h10-10--8\6--6^------|
 E|--10---------|--11---10---|--8-8--------------8----8h6-|

  
 e|----------------------------|
 B|----------------------------|
 G|----------------------------|
 D|----------------------------|
 A|------8h10-10--8\6--6^------|
 E|--8-8--------------8----8h6-|
 

Solo One 1:29

 e|---------------------------------|----------------------|
 B|------------------10^(12)^(10)h8-|----------------------|
 G|---------------8-----------------|-------------8\7--8\7-|
 D|-----------8-10------------------|--10---8--10----------|
 A|-------8-10----------------------|----------------------|
 E|---8h11--------------------------|----------------------|


 e|------------------------|--------------------------|
 B|------------------------|--------------------------|
 G|-8\7--------------------|-------8^-----------------|
 D|-----8/10---------------|--10------10--8-----------|
 A|------------8h10h8--8---|-----------------10--8h10-|
 E|------------------10----|--------------------------|
 

 e|-----------------------------||--------------------------|
 B|-----------------------------||--------------------------|
 G|---------------------10^-----||-------10h12--10^12^10----|
 D|--------10h12h10--12-----12--||--12-------------------12-| 
 A|--12-------------------------||--------------------------|
 E|-----------------------------||--------------------------|

 
 
 e|---------------------------------|---------------------------------||
 B|---------------------------------|---------------------------------||
 G|---------------------------------|---------------------------------||
 D|--12----10h12h10---10------------|--10h12h10---10--12--12^(13)^12--||
 A|----------------12----12--10h12--|----------12---------------------||
 E|---------------------------------|---------------------------------||
                                                                        


Keyboard Solo Punches
                        Play 8 Times
 e|---------------------------------| 
 B|---------------------------------|
 G|---------------------------------|
 D|--10---10------------------------|
 A|--10---10------------------------|
 E|--8----8-------------------------|
 
 
Solo Two

 e|----------------------------|------------------------------|
 B|------------------10^(12)^^^|^^(12)---(12)^10p8------8^----|
 G|---------------8------------|------------------10-10-8^----|
 D|-----------8-10-------------|---------------------------10-| 
 A|-------8-10-----------------|------------------------------|
 E|---8h11---------------------|------------------------------|


 e|------------------------|--------------------------|  
 B|------------------------|--------------------------|
 G|------------------------|------8---8-10--8--10--8--|
 D|--(10)-----8h10----8-10-|--10----10----------------|
 A|-------8h10-----10------|--------------------------|
 E|------------------------|--------------------------|


 e|---------------------------|------------------------------|
 B|------10-------------------|------------------------------|
 G|--12------12^(14)--12^(14)-|--12p10--10----------10-------|
 D|---------------------------|-------12--12--10h12-10-12-10-|
 A|---------------------------|------------------------------|
 E|---------------------------|------------------------------|


 e|--------------------------------|-----------------------|
 B|--------------------------------|-----------------------|
 G|--------------------10--12^(14)-|-(14)^(15)--10----8----|
 D|--12---------10--12-------------|---------------10---10-|
 A|--------10h12-------------------|-----------------------|
 E|--------------------------------|-----------------------|


 e|-------------------||
 B|-------------------||
 G|-------------------||
 D|--10--10-----------||
 A|--10--10-----------||
 E|--8---8------------||


 
PLEASE RATE THIS TAB                                                    zep8001  
Добавлено: 11.06.2013
Другие материалы по этой песне:

Страница создана 11.06.2013
http://primanota.ru/wolfmother/love-train-chords.htm
Привет, Гость.
Предлагаем пройти революционный курс по гитаре.
Подарок от PrimaNota.Ru, забирай!