PrimaNota.ru - самый крупный в мире бесплатный архив песенных текстов, аккордов, табулатур и нот


Wolfmother - Back Round - текст песни, таба, бас-таба, видео

Регистрация Запомнить меня
Войти через:  Facebook Google Twitter Vk Yandex Mail.ru

Wolfmother - Back Round - текст песни, таба, бас-таба, видео

Печатать
Просмотров: 163
Уроки эстрадного вокала в Санкт-Петербурге
Авторы музыки: Andrew Stockdale
Авторы текста: Andrew Stockdale
Song: Back 'Round
Band: Wolfmother
Tuning: Drop D

Hey! This is the Song Back  'Round by Wolfmother.
This is the Sound Relief version, so it's with the
 new lineup and has two guitar parts. I'll try to
tab out both and make it clear what to play for each
 part. I also tabbed out how Wolfmother played it at
 Andy Warhol, so if you want to play it that way,
check out the other tab version. This is complete
except for the solo. I hope you enjoy playing
this song! OK, here we go...

Just Guitar 1 (Andrew Stockdale):
Intro
e--------------------------------------------------------------------------|
b--------------------------------------------------------------------------|
g--14~~~-12h14p12----------------------------------------------------------|
d-----------------14--15--14--12~~~----------------------------------------|
a---------------------------------(0)--------------------------------------|
D---------------------------------(0)--------------------------------------|

Opening: x2 (Both guitar 1 and Guitar 2 at the same time)
Guitar 1:
e--------------------------------------------------------------------------|
b--------------------------------------------------------------------------|
g--14~~~-12h14p12----------------------------------------------------------|
d-----------------14--15--14--12~~~----------------------------------------|
a---------------------------------(0)--------------------------------------|
D---------------------------------(0)--------------------------------------|

Guitar 2:
e--------------------------------------------------------------------------|
b-15~~~--13h15p13~~--------------------------------------------------------|
g-------------------14-15-14-----------------------------------------------|
d----------------------------12--------------------------------------------|
a-------------------------------(0)----------------------------------------|
D-------------------------------(0)----------------------------------------|

Verse/Main Riff: x4
Both Guitar 1 and 2:
e--------------------------------------------------------------------------|
b--------------------------------------------------------------------------|
g--------------------------------------------------------------------------|
d-0--12-10-12-15-12-10-12-0-12-10-12-15-15-15-15-17-17---------------------|
a-0--12-10-12-15-12-10-12-0-12-10-12-15-15-15-15-17-17---------------------|
D-0--12-10-12-15-12-10-12-0-12-10-12-15-15-15-15-17-17---------------------|

Chorus 1: x1
Both Guitar 1 and 2:
(play each power chord as many times as
you want, just as long as you do it for
two measures. I tabbed it as 8 quarter notes,
but you can play 16 sixteenth notes, or even
faster and more if you want!)
e--------------------------------------------------------------------------|
b--------------------------------------------------------------------------|
g--------------------------------------------------------------------------|
d-0-0-0-0-0-0-0-0-15-15-15-15-15-15-15-15-14-14-14-14-14-14-14-14----------|
a-0-0-0-0-0-0-0-0-15-15-15-15-15-15-15-15-14-14-14-14-14-14-14-14----------|
D-0-0-0-0-0-0-0-0-15-15-15-15-15-15-15-15-14-14-14-14-14-14-14-14----------|

e--------------------------------------------------------------------------|
b--------------------------------------------------------------------------|
g--------------------------------------------------------------------------|
d-13-13-13-13-13-13-13-13--------------------------------------------------|
a-13-13-13-13-13-13-13-13--------------------------------------------------|
D-13-13-13-13-13-13-13-13--------------------------------------------------|

Verse/Main Riff: x2
Guitar 1 and 2:
e--------------------------------------------------------------------------|
b--------------------------------------------------------------------------|
g--------------------------------------------------------------------------|
d-0--12-10-12-15-12-10-12-0-12-10-12-15-15-15-15-17-17---------------------|
a-0--12-10-12-15-12-10-12-0-12-10-12-15-15-15-15-17-17---------------------|
D-0--12-10-12-15-12-10-12-0-12-10-12-15-15-15-15-17-17---------------------|

Chorus 2: x1
Both Guitar 1 and 2:
e--------------------------------------------------------------------------|
b--------------------------------------------------------------------------|
g--------------------------------------------------------------------------|
d-15-15-15-15-15-15-14-14-14-13-13-13-12-12-10-12-15-12-10-12--------------|
a-15-15-15-15-15-15-14-14-14-13-13-13-12-12-10-12-15-12-10-12--------------|
D-15-15-15-15-15-15-14-14-14-13-13-13-12-12-10-12-15-12-10-12--------------|

e--------------------------------------------------------------------------|
b--------------------------------------------------------------------------|
g--------------------------------------------------------------------------|
d-15-15-15-15-14-14-14-14-17-17-17-17-17-----------------------------------|
a-15-15-15-15-14-14-14-14-17-17-17-17-17-----------------------------------|
D-15-15-15-15-14-14-14-14-17-17-17-17-17-----------------------------------|

Breakdown Intro: x1
Only Guitar 1:
e--------------------------------------------------------------------------|
b--------------------------------------------------------------------------|
g---12-10-9-10-9---------12-10-9-------------------------------------------|
d-0--------------10-12-0---------8-----------------------------------------|
a-0--------------------0---------8-----------------------------------------|
D-0--------------------0---------8-----------------------------------------|

Breakdown: x3
Guitar 1:
e--------------------------------------------------------------------------|
b--------------------------------------------------------------------------|
g---12-10-9-10-9---------12-10-9-------------------------------------------|
d-0--------------10-12-0---------8~----------------------------------------|
a-0--------------------0---------8~----------------------------------------|
D-0--------------------0---------8~----------------------------------------|

Guitar 2:
(Quarter notes, while guitar 1 is playing main breakdown riff.)
e--------------------------------------------------------------------------|
b--------------------------------------------------------------------------|
g--------------------------------------------------------------------------|
d-0----0----0----0----0----0-----8-8-8-8-8-8-------------------------------|
a-0----0----0----0----0----0-----8-8-8-8-8-8-------------------------------|
D-0----0----0----0----0----0-----8-8-8-8-8-8-------------------------------|


Ok, right before the next part, I'll call it the bridge,
 Andrew does a little solo thing in the Sound
Relief version, but I won't worry about tabbing
that out.
Bridge: x1, but play the power chord several times.
Guitar 1:
e--------------------------------------------------------------------------|
b--------------------------------------------------------------------------|
g--------------------------------------------------------------------------|
d-12~~---------------------------------------------------------------------|
a-12~~---------------------------------------------------------------------|
D-12~~---------------------------------------------------------------------|

Guitar 2:
e--------------------------------------------------------------------------|
b--------------------------------------------------------------------------|
g--------------------------------------------------------------------------|
d-0~-----------------------------------------------------------------------|
a-0~-----------------------------------------------------------------------|
D-0~-----------------------------------------------------------------------|

Solo:
Not tabbed, but it is very close to the Andy Warhol
version from what I can tell. I can't hear it very
well because of the sound quality of the video.

Chorus 2: x1
Both Guitar 1 and 2:
e--------------------------------------------------------------------------|
b--------------------------------------------------------------------------|
g--------------------------------------------------------------------------|
d-15-15-15-15-15-15-14-14-14-13-13-13-12-12-10-12-15-12-10-12--------------|
a-15-15-15-15-15-15-14-14-14-13-13-13-12-12-10-12-15-12-10-12--------------|
D-15-15-15-15-15-15-14-14-14-13-13-13-12-12-10-12-15-12-10-12--------------|

e--------------------------------------------------------------------------|
b--------------------------------------------------------------------------|
g--------------------------------------------------------------------------|
d-15-15-15-15-14-14-14-14-17-17-17-17-17-17-17-17--------------------------|
a-15-15-15-15-14-14-14-14-17-17-17-17-17-17-17-17--------------------------|
D-15-15-15-15-14-14-14-14-17-17-17-17-17-17-17-17--------------------------|

Outro: x1
Guitar 1:
e--------------------------------------------------------------------------|
b--------------------------------------------------------------------------|
g--------------------------------------------------------------------------|
d-0--12-10-12-15-12-10-12-0-12-10-12-15-16-17-16-17-18-15-16-17-16-17-18---|
a-0--12-10-12-15-12-10-12-0-12-10-12-15-16-17-16-17-18-15-16-17-16-17-18---|
D-0--12-10-12-15-12-10-12-0-12-10-12-15-16-17-16-17-18-15-16-17-16-17-18---|


e--------------------------------------------------------------------------|
b--------------------------------------------------------------------------|
g--------------------------------------------------------------------------|
d-15-16-17-16-17-18-12-----------------------------------------------------|
a-15-16-17-16-17-18-12-----------------------------------------------------|
D-15-16-17-16-17-18-12-----------------------------------------------------|

Guitar 2:
e--------------------------------------------------------------------------|
b--------------------------------------------------------------------------|
g--------------------------------------------------------------------------|
d-0--12-10-12-15-12-10-12-0-12-10-12-3--4--5--4--5--6--3--4--5--4--5--6----|
a-0--12-10-12-15-12-10-12-0-12-10-12-3--4--5--4--5--6--3--4--5--4--5--6----|
D-0--12-10-12-15-12-10-12-0-12-10-12-3--4--5--4--5--6--3--4--5--4--5--6----|


e--------------------------------------------------------------------------|
b--------------------------------------------------------------------------|
g--------------------------------------------------------------------------|
d-3--4--5--4--5--6--0------------------------------------------------------|
a-3--4--5--4--5--6--0------------------------------------------------------|
D-3--4--5--4--5--6--0------------------------------------------------------|

And that's how Wolfmother played it at Sound Relief,
the only new song they played there. If you have
any suggestions/questions, e-mail me at
cameroncjohnson@yahoo.com and leave a comment below.
If you want the version from Andy Warhol, check out
the other tab for this song. Thanks!
Добавлено: 11.11.2013
Другие материалы по этой песне:
  • Аккорды и текст

Страница создана 23.08.2013
http://primanota.ru/wolfmother/back-round-chords.htm
Привет, Гость.
Предлагаем пройти революционный курс по гитаре.
Подарок от PrimaNota.Ru, забирай!