PrimaNota.ru - самый крупный в мире бесплатный архив песенных текстов, аккордов, табулатур и нот


Wolfmother - 10000 Ft - таба, видео

Регистрация Запомнить меня
Войти через:  Facebook Google Twitter Vk Yandex Mail.ru

Wolfmother - 10000 Ft - таба, видео

Печатать
Просмотров: 117
Transcribed by Danleary

Hello Wolfmother.net!

Drop D Tuning

Key

 ^ : Bend [1/4, 1/2, 1, etc.]
 v : Bring bend back down
 / : Slide into
 \ : Slide out of
 h : Hammer on
 p : Pull Off
(-): Do not pick note
 = : Vibrato
_____________________________________________________________________________

Intro/Chorus

Appears again at 1:20, 3:44
                                                         Repeat
0:00                    0:02        0:03                  0:05
   D   G A G    C     A   G A G   D   G A G   F     G  A  C
|-------------------------------------------------------------|
|-------------------------------------------------------------|
|-------------------------------------------------------------|
|--0---5-7-5---10-----7---5-7-5---0---5-7-5---3-----5--7--10--|
|--0---5-7-5---10-----7---5-7-5---0---5-7-5---3-----5--7--10--|
|--0---5-7-5h7-10-----7---5-7-5---0---5-7-5---3-----5--7--10--|
_____________________________________________________________________________

Verse

Appears again at 1:30

Guitar I

Palm mute 
0:21

|--------------------------|
|--------------------------|
|--------------------------|
|--------------------------|
|--------------------------|
|--0-0-0-0-0-0-0-0-etc...--|

Guitar II (Omit 1st time through)

1:30       
                      Repeat 
|---------------------------|
|-------7----7-7-7-7-7-7-7--|
|----7-------7-7-7-7-7-7-7--|
|--7---7-----7-7-7-7-7-7-7--|
|---------------------------|
|---------------------------|
_____________________________________________________________________________

Bridge

Appears again at 1:52

Palm mute                                                Repeat        
0:43                                                      0:47
      F  G  F      E  F  E      D  E  D             C  D 
|-------------------------------------------------------------|
|-------------------------------------------------------------|
|-------------------------------------------------------------|
|-----15-17-15-----14-15-14-----12-14-12------------10-12-12--|
|-----15-17-15-----14-15-14-----12-14-12------------10-12-12--|
|--0--15-17-15--0--14-15-14--0--12-14-12--0-X-0-0-0-10-12-12--|
_____________________________________________________________________________

Verse II
Guitar I

Appears again at 2:08

Palm mute
0:59                                               1:06
             G                  F                  E
|---------------------------------------------------------------------|
|---------------------------------------------------------------------|
|---------------------------------------------------------------------|
|------------17-17-17-----------15-15-15-----------14-14-14-----------|
|------------17-17-17-----------15-15-15-----------14-14-14-----------|
|--0-0-0-0-0-17-17-17-0-0-0-0-0-15-15-15-0-0-0-0-0-14-14-14-0-0-0-0-0-|

1:08
  C  D
|-----------|
|-----------|
|-----------|
|-10-12-12--|
|-10-12-12--|
|-10-12-12--|

Guitar II

Palm mute
1:09        1:11                    1:14                 1:17    
   
|------------------------------------------------------------------------|
|------------20^v(20)-20-----------18-18-18-----------17-17-17-----------|
|------------------------------------------------------------------------|
|------------------------------------------------------------------------|
|------------------------------------------------------------------------|
|--0-0-0-0-0-------------0-0-0-0-0----------0-0-0-0-0----------0-0-0-0-0-|

1:19

|-----------|
|-17--------|
|----19-19--|
|-----------|
|-----------|
|-----------|
_____________________________________________________________________________

Solo        

With wah-wah pedal.

                     Repeat 4X 
2:29                      2:32|2:50   
                    
|-----------------------------|--------|
|-----------------------------|--------|
|----14-12---10-12-10---9-10--|--------|
|--0-------0----------0-------|--7===--|
|-----------------------------|--------|
|-----------------------------|--------|

                     Repeat 2X
2:40                   2:42

|------------------------------|
|------------------------------|
|------------------------------|
|----14-12---11-12-14---15-14--|
|--0-------0----------0--------|
|------------------------------|

[2:45 - Same as 2:29, Repeat 2X]


2:50                                2:53

|--------------------------------------------------------------------|
|--------------------------------------------------------------------|
|--------------------------------------------------------------------|
|--------------------------------------------------------------------|
|--3-2-0-3-2-0-3-2-0-3-2-0-3-2-0-0--5-3-0-5-3-0-5-3-0-5-3-0-5-3-0-0--|
|--3-2-0-3-2-0-3-2-0-3-2-0-3-2-0-0--5-3-0-5-3-0-5-3-0-5-3-0-5-3-0-0--|

2:56                                2:59

|--------------------------------------------------------------------|
|--------------------------------------------------------------------|
|--------------------------------------------------------------------|
|--7-5-0-7-5-0-7-5-0-7-5-0-7-5-0-0--8-7-0-8-7-0-8-7-0-8-7-0-8-7-0-0--|
|--7-5-0-7-5-0-7-5-0-7-5-0-7-5-0-0--8-7-0-8-7-0-8-7-0-8-7-0-8-7-0-0--|

_____________________________________________________________________________

Coda

Guitar I

4:05

   E
|-----|
|-----|
|-----|
|--0--|
|--0--|
|--0--|


Добавлено: 23.11.2013
Другие материалы по этой песне:
  • Аккорды и текст

Страница создана 23.11.2013
http://primanota.ru/wolfmother/10000-ft-chords.htm
Привет, Гость.
Предлагаем пройти революционный курс по гитаре.
Подарок от PrimaNota.Ru, забирай!