PrimaNota.ru - самый крупный в мире бесплатный архив песенных текстов, аккордов, табулатур и нот


Wolfmother - 10000 Feet - текст песни, таба, видео

Регистрация Запомнить меня
Войти через:  Facebook Google Twitter Vk Yandex Mail.ru

Wolfmother - 10000 Feet - текст песни, таба, видео

Печатать
Просмотров: 229
Авторы музыки: Andrew Stockdale
Авторы текста: Andrew Stockdale
(h) Hammer On  (p) Pull Off (pm) Palm mute



Riff 1:
E|------------------------------------------------------------|
B|------------------------------------------------------------|
G|------------------------------------------------------------|
D|--0--0h5h7--5h7--10--7--5h7--5----0--0h5h7--5--3--5--7--10--|
A|--0--0h5h7--5h7--10--7--5h7--5----0--0h5h7--5--3--5--7--10--|
D|--0--0h5h7--5h7--10--7--5h7--5----0--0h5h7--5--3--5--7--10--|

Riff 2-1:
E|--------------------------|
B|--------------------------|
G|--------------------------|
D|--0--0--0--0--0--0--0--0--|
A|--0--0--0--0--0--0--0--0--|
D|--0--0--0--0--0--0--0--0--|
    pm-------------------pm             

Riff 2-2(Played only the second time by a second guitar):
E|---------------------------|
B|--------7-----7---7-7-7-7--|
G|----7-7-----7-----7-7-7-7--|
D|--7-------7-----7-7-7-7-7--|
A|---------------------------|
D|---------------------------|

E|---------------------------------------------------------------------|
B|---------------------------------------------------------------------|
G|---------------------------------------------------------------------|
D|--0--15h17--15--0--14h15--14--0--12h14--12--0-0-0--0--0--10--12--12--|
A|--0--15h17--15--0--14h15--14--0--12h14--12--0-0-0--0--0--10--12--12--|
D|--0--15h17--15--0--14h15--14--0--12h14--12--0-0-0--0--0--10--12--12--|
                                              pm--------pm
Riff 4:          
E|--------------------------------------------------------|
B|--------------------------------------------------------|
G|--------------------------------------------------------|
D|--0--0--0--0--0--17--17--17--0--0--0--0--0--15--15--15--|
A|--0--0--0--0--0--17--17--17--0--0--0--0--0--15--15--15--|
D|--0--0--0--0--0--17--17--17--0--0--0--0--0--15--15--15--|
    pm----------pm             pm----------pm

Riff 4 continued:
E|--------------------------------------------------------|
B|--------------------------------------------------------|
G|--------------------------------------------------------|
D|--0--0--0--0--0--14--14--14--0--0--0--0--0--10--12--12--|
A|--0--0--0--0--0--14--14--14--0--0--0--0--0--10--12--12--|
D|--0--0--0--0--0--14--14--14--0--0--0--0--0--10--12--12--|
    pm----------pm             pm----------pm

Solo riff 1:
E|-----------------------------|
B|-----------------------------|
G|----14-12---10-12-10---9h10--|
D|--0-------0----------0-------|
A|-----------------------------|
D|-----------------------------|
                     
Solo riff 2:
E|------------------------------|
B|------------------------------|
G|------------------------------|
D|----14-12---11-12-14---15p14--|
A|--0-------0----------0--------|
D|------------------------------|

Riff 5:
E|--------------------------------------------------------------------|
B|--------------------------------------------------------------------|
G|--------------------------------------------------------------------|
D|--3p2-0-3p2-0-3p2-0-3p2-0-3p2-0-0--5p3-0-5p3-0-5p3-0-5p3-0-5p3-0-0--|
A|--3p2-0-3p2-0-3p2-0-3p2-0-3p2-0-0--5p3-0-5p3-0-5p3-0-5p3-0-5p3-0-0--|
D|--3p2-0-3p2-0-3p2-0-3p2-0-3p2-0-0--5p3-0-5p3-0-5p3-0-5p3-0-5p3-0-0--|
                              
Riff 5 continued:
E|--------------------------------------------------------------------|
B|--------------------------------------------------------------------|
G|--------------------------------------------------------------------|
D|--7p5-0-7p5-0-7p5-0-7p5-0-7p5-0-0--8p7-0-8p7-0-8p7-0-8p7-0-8p7-0-0--|
A|--7p5-0-7p5-0-7p5-0-7p5-0-7p5-0-0--8p7-0-8p7-0-8p7-0-8p7-0-8p7-0-0--|
D|--7p5-0-7p5-0-7p5-0-7p5-0-7p5-0-0--8p7-0-8p7-0-8p7-0-8p7-0-8p7-0-0--|

End on:
E|------|
B|------|
G|------|
D|--0~--|
A|--0~--|
D|--0~--|
Добавлено: 20.08.2013
Другие материалы по этой песне:
  • Аккорды и текст

Страница создана 20.08.2013
http://primanota.ru/wolfmother/10000-feet-chords.htm
Привет, Гость.
Предлагаем пройти революционный курс по гитаре.
Подарок от PrimaNota.Ru, забирай!