PrimaNota.ru - самый крупный в мире бесплатный архив песенных текстов, аккордов, табулатур и нот


Wolfmother - Joker & The Thief - текст песни, таба, бас-таба, видео

Регистрация Запомнить меня
Войти через:  Facebook Google Twitter Vk Yandex Mail.ru

Wolfmother - Joker & The Thief - текст песни, таба, бас-таба, видео

Печатать
Просмотров: 314
Авторы: Myles Heskett, Chris Ross, Andrew Stockdale

 Intro

  Gtr I
  |-3-| |-3-| |-3-| |-3-|   |-3-| |-3-| |-3-| |-3-|
  E E E E E E E E E E E E   E E E E E E E E E E E E
|-------------------------|-------------------------|
|-------------------------|-------------------------|
|-------0h5h7-------0h5h7-|-------0h5h7-------0h5h7-|
|-0h5h7-------0h5h7-------|-0h5h7-------0h5h7-------|
|-------------------------|-------------------------|
|-------------------------|-------------------------|


    |-3-| |-3-| |-3-| |-3-|   |-3-| |-3-| |-3-| |-3-|
    E E E E E E E E E E E E   E E E E E E E E E E E E    4x
||--------------------------|----------------------------||
||o-------------------------|---------------------------o||
||--------0h5h7-------0h5h7-|-------0h5h7-------0h5h7----||
||--0h5h7-------0h5h7-------|-0h5h7-------0h5h7----------||
||o-------------------------|---------------------------o||
||--------------------------|----------------------------||


    D5
    Gtr I
    |-3-| |-3-| |-3-| |-3-|   |-3-| |-3-| |-3-| |-3-|
    E E E E E E E E E E E E   E E E E E E E E E E E E
||--------------------------|-------------------------|
||o-------------------------|-------------------------|
||--------0h5h7-------0h5h7-|-------0h5h7-------0h5h7-|
||--0h5h7-------0h5h7-------|-0h5h7-------0h5h7-------|
||o-------------------------|-------------------------|
||--------------------------|-------------------------|


  C5
  |-3-| |-3-| |-3-| |-3-|   |-3-| |-3-| |-3-| |-3-|
  E E E E E E E E E E E E   E E E E E E E E E E E E

|-------------------------|-----------------------------||
|-------------------------|----------------------------o||
|-------0h5h7-------0h5h7-|-------0h5h7-------0h5h7-----||
|-0h5h7-------0h5h7-------|-0h5h7-------0h5h7-----------||
|-------------------------|----------------------------o||
|-------------------------|-----------------------------||


  F5
  |-3-| |-3-| |-3-| |-3-|   |-3-| |-3-| |-3-| |-3-|
  E E E E E E E E E E E E   E E E E E E E E E E E E
|-------------------------|-------------------------|
|-------------------------|-------------------------|
|-------0h5h7-------0h5h7-|-------0h5h7-------0h5h7-|
|-0h5h7-------0h5h7-------|-0h5h7-------0h5h7-------|
|-------------------------|-------------------------|
|-------------------------|-------------------------|


  G5
  |-3-| |-3-| |-3-| |-3-|   |-3-| |-3-| |-3-| |-3-|
  E E E E E E E E E E E E   E E E E E E E E E E E E
|-------------------------|----------------------------||
|-------------------------|----------------------------||
|-------0h5h7-------0h5h7-|-------0h5h7-------0h5h7----||
|-0h5h7-------0h5h7-------|-0h5h7-------0h5h7----------||
|-------------------------|----------------------------||
|-------------------------|----------------------------||


  D5
  Gtr I
   q   q   q   q     q   E  E  E  E  E  E
|-----------------|-----------------------|
|-----------------|-----------------------|
|-----------------|-----------------------|
|-----------------|-----------------------|
|-12--12--12--12--|-12--12-10-12-10-12-10-|
|-12--12--12--12--|-12--12-10-12-10-12-10-|


   q   q   q   q     q   E  E  E  E  E  E
|-----------------|-----------------------|
|-----------------|-----------------------|
|-----------------|-----------------------|
|-----------------|-----------------------|
|-12--12--12--12--|-12--12-10-12-10-12s15-|
|-12--12--12--12--|-12--12-10-12-10-12s15-|


   q   q   q   q     q   E  E  E  E  E  E
|-----------------|-----------------------|
|-----------------|-----------------------|
|-----------------|-----------------------|
|-----------------|-----------------------|
|-12--12--12--12--|-12--12-10-12-10-12s15-|
|-12--12--12--12--|-12--12-10-12-10-12s15-|


  F5             G5                       D5
   q   q   q   E  E    Q   E  E  E  E  E   E
|-------------------|------------------------||
|-------------------|------------------------||
|-------------------|------------------------||
|-------------------|------------------------||
|-15--15--15--15s17-|-17--17-15-17-15-17\-12-||
|-15--15--15--15s17-|-17--17-15-17-15-17\-12-||


  $
  D5
   q   q   q   q     q   E  E  E  E  E  E


|-----------------|-----------------------|
|-----------------|-----------------------|
|-----------------|-----------------------|
|-----------------|-----------------------|
|-12--12--12--12--|-12--12-10-12-10-12-10-|
|-12--12--12--12--|-12--12-10-12-10-12-10-|


                                To Coda
   q   q   q   q     q   E  E  E  E  E  E
|-----------------|-----------------------||
|-----------------|-----------------------||
|-----------------|-----------------------||
|-----------------|-----------------------||
|-12--12--12--12--|-12--12-10-12-10-12-10-||
|-12--12--12--12--|-12--12-10-12-10-12-10-||

 1st Verse
  D5
   q   q   q   q     q   E  E  E  E  E  E
|-----------------|-----------------------|
|-----------------|-----------------------|
|-----------------|-----------------------|
|-----------------|-----------------------|
|-12--12--12--12--|-12--12-10-12-10-12-10-|
|-12--12--12--12--|-12--12-10-12-10-12-10-|

   q   q   q   q     q   E  E  E  E  E  E
|-----------------|-----------------------|
|-----------------|-----------------------|
|-----------------|-----------------------|
|-----------------|-----------------------|
|-12--12--12--12--|-12--12-10-12-10-12-10-|
|-12--12--12--12--|-12--12-10-12-10-12-10-|

   q   q   q   q     q   E  E  E  E  E  E
|-----------------|-----------------------|
|-----------------|-----------------------|
|-----------------|-----------------------|
|-----------------|-----------------------|
|-12--12--12--12--|-12--12-10-12-10-12-10-|
|-12--12--12--12--|-12--12-10-12-10-12-10-|

  F5                  G5
   q   q   q   E  E    Q   E  E  E  E  E   E
|-------------------|------------------------|
|-------------------|------------------------|
|-------------------|------------------------|
|-------------------|------------------------|
|-15--15--15--15s17-|-17--17-15-17-15-17\-12-|
|-15--15--15--15s17-|-17--17-15-17-15-17\-12-|
  D5
   q   q   q   q     q   E  E  E  E  E  E
|-----------------|-----------------------|
|-----------------|-----------------------|
|-----------------|-----------------------|
|-----------------|-----------------------|
|-12--12--12--12--|-12--12-10-12-10-12-10-|
|-12--12--12--12--|-12--12-10-12-10-12-10-|

   q   q   q   q     q   E  E  E  E  E  E
|-----------------|-----------------------||
|-----------------|-----------------------||
|-----------------|-----------------------||
|-----------------|-----------------------||
|-12--12--12--12--|-12--12-10-12-10-12-10-||
|-12--12--12--12--|-12--12-10-12-10-12-10-||

 2nd Verse
  D5
   q   q   q   q     q   E  E  E  E  E  E
|-----------------|-----------------------|
|-----------------|-----------------------|
|-----------------|-----------------------|
|-----------------|-----------------------|
|-12--12--12--12--|-12--12-10-12-10-12-10-|
|-12--12--12--12--|-12--12-10-12-10-12-10-|
|
| Gtr II
|  TP                TP
|  W                 W
|-----------------|-----------------------|
|-10--------------|--8--------------------|
|-----------------|-----------------------|
|-----------------|-----------------------|
|-----------------|-----------------------|
|-----------------|-----------------------|

   q   q   q   q     q   E  E  E  E  E  E
|-----------------|-----------------------|
|-----------------|-----------------------|
|-----------------|-----------------------|
|-----------------|-----------------------|
|-12--12--12--12--|-12--12-10-12-10-12-10-|
|-12--12--12--12--|-12--12-10-12-10-12-10-|
|
|  TP                TP
|  W                 W
|-----------------|-----------------------|
|--6--------------|--8--------------------|
|-----------------|-----------------------|
|-----------------|-----------------------|
|-----------------|-----------------------|
|-----------------|-----------------------|

                                            F5            G5
   q   q   q   q     q   E  E  E  E  E  E    Q  Q  H       Q  Q  H
|-----------------|-----------------------|-------------|-------------|
|-----------------|-----------------------|-------------|-------------|
|-----------------|-----------------------|-------------|-------------|
|-----------------|-----------------------|-------------|-------------|
|-12--12--12--12--|-12--12-10-12-10-12-10-|-15----------|-17----------|
|-12--12--12--12--|-12--12-10-12-10-12-10-|-15----------|-17----------|
|
|                                            >             >
|  TP                TP                      TP            TP
|  W                 W                       W             W
|-----------------|-----------------------|-------------|-------------|
|-10--------------|--8--------------------|--6----------|--8----------|
|-----------------|-----------------------|-------------|-------------|
|-----------------|-----------------------|-------------|-------------|
|-----------------|-----------------------|-------------|-------------|
|-----------------|-----------------------|-------------|-------------|

  $$
  (D5)
  Gtr I
  |-3-| |-3-| |-3-| |-3-|   |-3-| |-3-| |-3-| |-3-|
  E E E E E E E E E E E E   E E E E E E E E E E E E
|-------------------------|-------------------------|
|-------------------------|-------------------------|
|-------0h5h7-------0h5h7-|-------0h5h7-------0h5h7-|
|-0h5h7-------0h5h7-------|-0h5h7-------0h5h7-------|
|-------------------------|-------------------------|
|-------------------------|-------------------------|

  (C5)
  |-3-| |-3-| |-3-| |-3-|   |-3-| |-3-| |-3-| |-3-|
  E E E E E E E E E E E E   E E E E E E E E E E E E
|-------------------------|----------------------------||
|-------------------------|----------------------------||
|-------0h5h7-------0h5h7-|-------0h5h7-------0h5h7----||
|-0h5h7-------0h5h7-------|-0h5h7-------0h5h7----------||
|-------------------------|----------------------------||
|-------------------------|----------------------------||

   Chorus
    (D5)
    |-3-| |-3-| |-3-| |-3-|   |-3-| |-3-| |-3-| |-3-|
    E E E E E E E E E E E E   E E E E E E E E E E E E
||--------------------------|-------------------------|
||o-------------------------|-------------------------|
||--------0h5h7-------0h5h7-|-------0h5h7-------0h5h7-|
||--0h5h7-------0h5h7-------|-0h5h7-------0h5h7-------|
||o-------------------------|-------------------------|
||--------------------------|-------------------------|

  |-3-| |-3-| |-3-| |-3-|   |-3-| |-3-| |-3-| |-3-|
  E E E E E E E E E E E E   E E E E E E E E E E E E
|-------------------------|-----------------------------||
|-------------------------|----------------------------o||
|-------0h5h7-------0h5h7-|-------0h5h7-------0h5h7-----||
|-0h5h7-------0h5h7-------|-0h5h7-------0h5h7-----------||
|-------------------------|----------------------------o||
|-------------------------|-----------------------------||
  (F5)
   |--3---|  |--3---|  |--3---|  |--3---|    |--3---|  |--3---|  |--3---|  |--3---|
   E E    E  E E    E  E E    E  E E    E    E E    E  E E    E  E E    E  E E    E
|-----------------------------------------|-----------------------------------------|
|-----------------------------------------|-----------------------------------------|
|------------0h5h===7------------0h5h===7-|------------0h5h===7------------0h5h===7-|
|--0h5h===7------------0h5h===7-----------|--0h5h===7------------0h5h===7-----------|
|-----------------------------------------|-----------------------------------------|
|-----------------------------------------|-----------------------------------------|
|
| Gtr II
|  |-----3-----|       |-----3-----|         |-----3-----|       |-----3-----|
|  Q      Q    Q       Q      Q    Q         Q      Q    Q       Q      Q    Q
|-----------------------------------------|-----------------------------------------|
|-----------------------------------------|-----------------------------------------|
|----------------------0h=====5h===7------|----------------------0h=====5h===7------|
|--0h=====5h===7--------------------------|--0h=====5h===7--------------------------|
|-----------------------------------------|-----------------------------------------|
|-----------------------------------------|-----------------------------------------|
|
| Gtr III
|  E    E    E    E    E    E    E    E      E    E    E    E    E    E    E    E
|-----------------------------------------|-----------------------------------------|
|-----------------------------------------|-----------------------------------------|
|-----------12h==14-------------12h==14---|-----------12h==14-------------12h==14---|
|-12h==14-------------12h==14-------------|-12h==14-------------12h==14-------------|
|-----------------------------------------|-----------------------------------------|
|-----------------------------------------|-----------------------------------------|

                                                                   To Dbl. Coda
  (G5)
   |--3---|  |--3---|  |--3---|  |--3---|    |--3---|  |--3---|  |--3---|  |--3---|
   E E    E  E E    E  E E    E  E E    E    E E    E  E E    E  E E    E  E E    E
|-----------------------------------------|--------------------------------------------|
|-----------------------------------------|--------------------------------------------|
|------------0h5h===7------------0h5h===7-|------------0h5h===7------------0h5h===7----|
|--0h5h===7------------0h5h===7-----------|--0h5h===7------------0h5h===7--------------|
|-----------------------------------------|--------------------------------------------|
|-----------------------------------------|--------------------------------------------|

|  |-----3-----|       |-----3-----|         |-----3-----|       |-----3-----|
|  Q      Q    Q       Q      Q    Q         Q      Q    Q       Q      Q    Q

|-----------------------------------------|------------------------------------------|
|-----------------------------------------|------------------------------------------|
|----------------------0h=5h=7-------|----------------------0h=5h=7---------|
|--0h=5h=7---------------------------|--0h=5h=7-----------------------------|
|-----------------------------------------|------------------------------------------|
|-----------------------------------------|------------------------------------------|
|
|  E    E    E    E    E    E    E    E      E    E    E    E    E    E    E    E
|-----------------------------------------|--------------------------------------------|
|-----------------------------------------|--------------------------------------------|
|-----------12h==14-------------12h==14---|-----------12h==14-------------12h==14------|
|-12h==14-------------12h==14-------------|-12h==14-------------12h==14----------------|
|-----------------------------------------|--------------------------------------------|
|-----------------------------------------|--------------------------------------------|


  D5
  Gtr I
   q   q   q   q     q   E  E  E  E  E  E
|-----------------|-----------------------|
|-----------------|-----------------------|
|-----------------|-----------------------|
|-----------------|-----------------------|
|-12--12--12--12--|-12--12-10-12-10-12-10-|
|-12--12--12--12--|-12--12-10-12-10-12-10-|


                           D.S. al Coda
   q   q   q   q     q   E  E  E  E  E  E
|-----------------|-----------------------||
|-----------------|-----------------------||
|-----------------|-----------------------||
|-----------------|-----------------------||
|-12--12--12--12--|-12--12-10-12-10-12-10-||
|-12--12--12--12--|-12--12-10-12-10-12-10-||


 3rd Verse
  &
  D5
  Gtr I
   q   q   q   q     q   E  E  E  E  E  E
|-----------------|-----------------------|
|-----------------|-----------------------|
|-----------------|-----------------------|
|-----------------|-----------------------|
|-12--12--12--12--|-12--12-10-12-10-12-10-|
|-12--12--12--12--|-12--12-10-12-10-12-10-|
|
| Gtr II
|  W                 W
|-17--------------|-15--------------------|
|-----------------|-----------------------|
|-----------------|-----------------------|
|-----------------|-----------------------|
|-----------------|-----------------------|
|-----------------|-----------------------|


   q   q   q   q     q   E  E  E  E  E  E
|-----------------|-----------------------|
|-----------------|-----------------------|
|-----------------|-----------------------|
|-----------------|-----------------------|
|-12--12--12--12--|-12--12-10-12-10-12-10-|
|-12--12--12--12--|-12--12-10-12-10-12-10-|
|
|  W                 H         H
|-13--------------|-----------------------|
|-----------------|------------3----------|
|-----------------|--2--------------------|
|-----------------|-----------------------|
|-----------------|-----------------------|
|-----------------|-----------------------|


                                            F5            G5
   q   q   q   q     q   E  E  E  E  E  E    Q  Q  H       Q  Q  H
|-----------------|-----------------------|-------------|-------------|
|-----------------|-----------------------|-------------|-------------|
|-----------------|-----------------------|-------------|-------------|
|-----------------|-----------------------|-------------|-------------|
|-12--12--12--12--|-12--12-10-12-10-12-10-|-15----------|-17----------|
|-12--12--12--12--|-12--12-10-12-10-12-10-|-15----------|-17----------|
|
|  W                 W                       W             W
|--3--------------|--1--------------------|-------------|-------------|
|--3--------------|-----------------------|-------------|-------------|
|-----------------|-----------------------|-------------|-------------|
|-----------------|-----------------------|-------------|-------------|
|-----------------|-----------------------|-------------|-------------|
|-----------------|-----------------------|-------------|-------------|


  D5
   q   q   q   q     q   E  E  E  E  E  E
|-----------------|-----------------------|
|-----------------|-----------------------|
|-----------------|-----------------------|
|-----------------|-----------------------|
|-12--12--12--12--|-12--12-10-12-10-12-10-|
|-12--12--12--12--|-12--12-10-12-10-12-10-|


   q   q   q   q     q   E  E  E  E  E  E
|-----------------|-----------------------||
|-----------------|-----------------------||
|-----------------|-----------------------||
|-----------------|-----------------------||
|-12--12--12--12--|-12--12-10-12-10-12-10-||
|-12--12--12--12--|-12--12-10-12-10-12-10-||


 4th Verse
  D5
   q   q   q   q     q   E  E  E  E  E  E
|-----------------|-----------------------|
|-----------------|-----------------------|
|-----------------|-----------------------|
|-----------------|-----------------------|
|-12--12--12--12--|-12--12-10-12-10-12-10-|
|-12--12--12--12--|-12--12-10-12-10-12-10-|
|
| Gtr II
|  W                 W
|-----------------|--3--------------------|
|--3--------------|-----------------------|
|-----------------|-----------------------|
|-----------------|-----------------------|
|-----------------|-----------------------|
|-----------------|-----------------------|


   q   q   q   q     q   E  E  E  E  E  E
|-----------------|-----------------------|
|-----------------|-----------------------|
|-----------------|-----------------------|
|-----------------|-----------------------|
|-12--12--12--12--|-12--12-10-12-10-12-10-|
|-12--12--12--12--|-12--12-10-12-10-12-10-|
|
|  W                 W
|--1--------------|--3--------------------|
|-----------------|-----------------------|
|-----------------|-----------------------|
|-----------------|-----------------------|
|-----------------|-----------------------|
|-----------------|-----------------------|


   q   q   q   q     q    E  E  E  E  E  E

|-----------------|------------------------|
|-----------------|------------------------|
|-----------------|------------------------|
|-----------------|------------------------|
|-12--12--12--12--|-12---12-10-12-10-12-10-|
|-12--12--12--12--|-12---12-10-12-10-12-10-|
|
|  W                 H.               Q
|-----------------|--3---------------------|
|--3--------------|------------------------|
|--2--------------|--0---------------------|
|-----------------|------------------------|
|-----------------|------------------------|
|-----------------|------------------------|


                    D.S.S. al Dbl. Coda
   q   q   q   q     q   E  E  E  E  E  E
|-----------------|-----------------------||
|-----------------|-----------------------||
|-----------------|-----------------------||
|-----------------|-----------------------||
|-12--12--12--12--|-12--12-10-12-10-12-10-||
|-12--12--12--12--|-12--12-10-12-10-12-10-||
|
|  W                 W
|-----------------|-----------------------||
|-----------------|-----------------------||
|-----------------|-----------------------||
|-----------------|-----------------------||
|-----------------|-----------------------||
|-----------------|-----------------------||


   Interlude
                                        1.              2.
    &&
    N.C(D5)                  (C5)
    Gtr I
               |-3-| |-3-|              |-3-| |-3-|     |-3-| |-3-|
    W          Q Q Q Q Q Q   W          Q Q Q Q Q Q     Q Q Q Q Q Q
||-----------|-------------|----------|--------------||--------------||
||o----------|-------------|----------|-------------o||--------------||
||-----------|-------------|----------|--------------||--------------||
||-----------|-7-5-4-5-4---|----------|-7-5-4-5-4----||-7-5-4-5-4-5s=||
||o-5--------|-----------5-|-3--------|-----------7-o||--------------||
||-----------|-------------|----------|--------------||--------------||


  (F5)                     (G5)
                    |3-|
  W          +H     H  Q   W          +H     Q  +Q
|----------|-------------|----------|------------------|
|----------|-------------|----------|------------------|
|----------|-------------|----------|------------------|
|-7--------|-(7)----7--7-|-9--------|-(9)----9--(9)/---|
|----------|-------------|-0--------|-(0)--------------|
|----------|-------------|----------|------------------|


    (D5)                            (C5)
                 |--3--|  |--3--|
     W           Q  Q  Q  Q  Q  Q    W
||------------|-------------------|-----------|
||o-----------|-------------------|-----------|
||--12--------|-14-12-11-12-11----|-----------|
||------------|----------------12-|-10--------|
||o-----------|-------------------|-----------|
||------------|-------------------|-----------|


  1.                    2.
   |--3--|  |--3--|       |--3--|  |--3--|
   Q  Q  Q  Q  Q  Q       Q  Q  Q  Q  Q  Q


|--------------------||----------------------|
|-------------------o||----------------------|
|-14-12-11-12-11-----||--14-12-11-12-11-12s==|
|----------------14--||----------------------|
|-------------------o||----------------------|
|--------------------||----------------------|


  (F5)
   ~~~~~~~~~~~~~~~~
   W           +H      Q   +Q       W           H     H
|-----------|--------------------|-----------|-------------||
|-----------|--------------------|-----------|-------------||
|-14--------|-(14)----14--(14)/--|-16--------|-16----16----||
|-----------|--------------------|-----------|-------------||
|-----------|--------------------|-----------|-------------||
|-----------|--------------------|-----------|-------------||


  w/half time feel Q=156
  D5                          C5
   Q  Q   Q  Q     Q  Q  a  E  E  Q
|---------------|----------------13--|
|-15-----15-----|-15-------15-13-----|
|---------------|-----0--x-----------|
|---------------|--------------------|
|---------------|--------------------|
|---------------|--------------------|


  D5                                         C5
       |--3--|      |--3--|       |--3--|
   Q   E  E  E  Q   E  E  E    Q  E  E  E  E  E  Q
|-----13-13-13-13--13-13-13-|-------13-13-------15--|
|-15---x--x--x-15---x--x--x-|-15-----x--x-15-13-----|
|------x--x--x------x--x--x-|--------x--x-----------|
|------x--x--x------x--x--x-|--------x--x-----------|
|------x--x--x------x--x--x-|--------x--x-----------|
|------x--x--x------x--x--x-|--------x--x-----------|


  D5                                                  C5
         |--3--|        |--3--|           |--3---|
   E  E  E  E  E  E  E  E  E  E    E  E  +E   E  E  E  E  Q
|-----x--x--x--x-----x--x--x-13-|----13-(13)-13-13-------13--|
|-15-15-15-15-15-15-15-15-15--x-|-15--x--(x)--x--x-15-13-----|
|-----x--x--x--x-----x--x--x--x-|-----x--(x)--x--x-----------|
|-----x--x--x--x-----x--x--x--x-|-----x--(x)--x--x-----------|
|-----x--x--x--x-----x--x--x--x-|-----x--(x)--x--x-----------|
|-----x--x--x--x-----x--x--x--x-|-----x--(x)--x--x-----------|


  D5                                         C5
         |--3--|      |--3--|
   E  E  E  E  E  Q   E  E  E    E  E  Q   E  E  Q
|----13-13-13-13-----13-13-13-|----13-----------15---|
|-15--x--x--x--x-15---x--x--x-|-15----15--15-13------|
|-----x--x--x--x------x--x--x-|----------------------|
|-----x--x--x--x------x--x--x-|----------------------|
|-----x--x--x--x------x--x--x-|----------------------|
|-----x--x--x--x------x--x--x-|----------------------|


  F5                                     D5
       |--3--|      |--3--|
   Q   E  E  E  Q   E  E  E    Q   Q   E  E  Q
|------x--x--x-----13-13-13-|---------------13--|
|-15--15-15-15-15---x--x--x-|-15--15--15-13-----|
|------x--x--x------x--x--x-|-------------------|
|------x--x--x------x--x--x-|-------------------|
|------x--x--x------x--x--x-|-------------------|
|------x--x--x------x--x--x-|-------------------|


  G5                                         C5

       |--3--|      |--3--|          |3-|
   Q   E  E  E  Q   E  E  E    E  E  E  Q  E  E  Q
|-----13-13-13-----13-13-13-|-13-13-13-13-------13--|
|-15---x--x--x-15---x--x--x-|-15--x--x--x-15-13-----|
|------x--x--x------x--x--x-|-----x--x--x-----------|
|------x--x--x------x--x--x-|-----x--x--x-----------|
|------x--x--x------x--x--x-|-----x--x--x-----------|
|------x--x--x------x--x--x-|-----x--x--x-----------|


  (end half time feel) Q=156(8=s8)
  N.C.    (D5)
                                      ~~~
                       |-----3-----|                   |---3---|  |---3---|   |---3---|
   H.          +Q      E      +E   E  H.         +Q    E  E    E  E   E   E   E  E    E
|-15b17=======(15)--|-15pb17r(15)p13----------|------------------------------------------|
|-------------------|----------------15-------|-(15)-------------------------------------|
|-------------------|-------------------------|------------------------------------------|
|-------------------|-------------------------|-------14p(0)h(14)p0h(14)p(0)h14p(0)h(14)p|
|-------------------|-------------------------|------------------------------------------|
|-------------------|-------------------------|------------------------------------------|


  |---3---|   |---3---|  |---3---|   |---3---|
  E   E   E   E  E    E  E   E   E   E  E    E
|-------------------------------------------------|
|-------------------------------------------------|
|-------------------------------------------------|
|-0h(14)p(0)h14p(0)h(14)p0h(14)p(0)h14p(0)h(14)p==|
|-------------------------------------------------|
|-------------------------------------------------|


  (F5)
  |---3---|   |---3---|  |---3---|   |---3---|
  E   E   E   E  E    E  E   E   E   E  E    E
|-----------------------------------------------|
|-----------------------------------------------|
|-----------------------------------------------|
|-0h(14)p(0)h14p(0)h(14)p0h(14)p(0)h14p(0)h(14)p|
|-----------------------------------------------|
|-----------------------------------------------|


  (G5)             D5
           |3|
  Q  Q  Q  E Q      q   q   q   q     q   E  E  E  E  E  E
|--------------||------------------|------------------------||
|--------------||o-----------------|-----------------------o||
|--------------||------------------|------------------------||
|-0------------||------------------|------------------------||
|----0-----5p0-||o-12--12--12--12--|-12--12-10-12-10-12-10-o||
|-------7------||--12--12--12--12--|-12--12-10-12-10-12-10--||


 Outro
  D5
   q   q   q   q     q   E  E  E  E  E  E
|-----------------|-----------------------|
|-----------------|-----------------------|
|-----------------|-----------------------|
|-----------------|-----------------------|
|-12--12--12--12--|-12--12-10-12-10-12-10-|
|-12--12--12--12--|-12--12-10-12-10-12-10-|


   q   q   q   q     q   E  E  E  E  E  E
|-----------------|-----------------------|
|-----------------|-----------------------|
|-----------------|-----------------------|
|-----------------|-----------------------|
|-12--12--12--12--|-12--12-10-12-10-12-10-|
|-12--12--12--12--|-12--12-10-12-10-12-10-|



                                              F5            G5
   q   q   q   q     q   E  E  E  E  E  E      Q  Q  H       Q  Q  H
|-----------------|-----------------------||--------------|--------------||
|-----------------|-----------------------||o-------------|-------------o||
|-----------------|-----------------------||--------------|--------------||
|-----------------|-----------------------||--------------|--------------||
|-12--12--12--12--|-12--12-10-12-10-12-10-||o-15----------|-17----------o||
|-12--12--12--12--|-12--12-10-12-10-12-10-||--15----------|-17-----------||


  F5          G5          D5
   W           W           H.      Q
|-----------|-----------|-------------*|
|-----------|-----------|-------------*|
|-----------|-----------|-------------*|
|-----------|-----------|-------------*|
|-15--------|-17--------|-12----------*|
|-15--------|-17--------|-12----------*|
Добавлено: 08.06.2013
Другие материалы по этой песне:

Страница создана 14.03.2012
http://primanota.ru/wolfmother/joker-and-the-thief-chords.htm
Привет, Гость.
Предлагаем пройти революционный курс по гитаре.
Подарок от PrimaNota.Ru, забирай!