PrimaNota.ru - самый крупный в мире бесплатный архив песенных текстов, аккордов, табулатур и нот


Wolfmother - Dimension - текст песни, таба, бас-таба, видео

Регистрация Запомнить меня
Войти через:  Facebook Google Twitter Vk Yandex Mail.ru

Wolfmother - Dimension - текст песни, таба, бас-таба, видео

Печатать
Просмотров: 299
Авторы: Myles Heskett, Chris Ross, Andrew Stockdale

Tabbed by: David Gainor
Email: david.gainor@btopenworld.com

Tuning: Standard EADGBe

My first tab. I know its mostly been done pretty well, but no one has got the riff right 
If you listen closely there is no hammer on, just a fast passing note (the 7th E note). 
hopefully this is 100% correct.

e|--------------------------------------------------------------------------|
B|--------------------------------------------------------------------------|
G|--------------------------------------------------------------------------|
D|--------------------------------------------------------------------------|
A|--------------------------------10---(x4)---------------------------------|
E|-12--12--12--12--12--12-12-10-12------------------------------------------|


      I fell down in the desert baby
e|--------------------------------------------------------------------------|
B|--------------------------------------------------------------------------|
G|--------------------------------------------------------------------------|
D|-14-----------------------------------------------------------------------|
A|-14-(let ring)------------------------------------------------------------|
E|-12-----------------------------------------------------------------------|
   E5

      I had nothing but a piece of paper
e|--------------------------------------------------------------------------|
B|--------------------------------------------------------------------------|
G|--------------------------------------------------------------------------|
D|-14-----------------------------------------------------------------------|
A|-14-(let ring)------------------------------------------------------------|
E|-12-----------------------------------------------------------------------|
   E5

      I had to write something down
e|--------------------------------------------------------------------------|
B|--------------------------------------------------------------------------|
G|-14-----------------------------------------------------------------------|
D|-14-----------------------------------------------------------------------|
A|-12-(let ring)------------------------------------------------------------|
E|--------------------------------------------------------------------------|
   A5

       And I found myself alone
e|--------------------------------------------------------------------------|
B|--------------------------------------------------------------------------|
G|--------------------------------------------------------------------------|
D|-14-----------------------------------------------------------------------|
A|-14-(let ring)------------------------------------------------------------|
E|-12-----------------------------------------------------------------------|
   E5

        Then I let go of everything
e|--------------------------------------------------------------------------|
B|--------------------------------------------------------------------------|
G|-16-------------------------14--------------------------------------------|
D|-16-------------------------14--------------------------------------------|
A|-14-(let ring)--------------12-(let ring)---------------------------------|
E|--------------------------------------------------------------------------|
   B5                         A5

  Into another Dimension
e|--------------------------------------------------------------------------|
B|--------------------------------------------------------------------------|
G|--------------------------------------------------------------------------|
D|-----------------------------------12--12-14-12---------------------------|
A|---------------------10-11-12-13-14-------------14-13-12-11-10------------|
E|---------------10-12-------------------------------------------12-(x2)----|
(Dont play the last note (the low E) on the second repeat)

            Purple hazes in the sky......
e|--------------------------------------------------------------------------|
B|--------------------------------------------------------------------------|
G|--------------------------------------------------------------------------|
D|--------------------------------------------------------------------------|
A|-12-14-(let ring)---------8-7-(let ring)------(play this 4 times)---------|
E|-10-12--------------------6-5---------------------------------------------|
   D5 E5                  Bb5 A5

  Oh Yeh
e|--------------------------------------------------------------------------|
B|--------------------------------------------------------------------------|
G|--------------------------------------------------------------------------|
D|--------------------------------------------------------------------------|
A|-----------------10--(x4)-------------------------------------------------|
E|--12--12-12-10-12---------------------------------------------------------|

The 2nd verse is the same as the first

Chorus 2 - Into another Dimension
e|---------------------------------------------------------------------------|
B|---------------------------------------------------------------------------|
G|---------------------------------------------------------------------------|
D|----------------------12--12-14-12-----------------------------------------|
A|-------10-11-12-13-14-------------14-13-12-11-10---------------------------|
E|--10-12-----------------------------------------12-------------------------|

Then for the second part of the riff...
e|---------------------------------------------------------------------------|
B|---------------------------------------------------------------------------|
G|--------------------12--12-14-12-------------------------------------------|
D|------10-11-12-13-14------------14-13-12-11-10-----------------------------|
A|-10-12---------------------------------------------------------------------|
E|---------------------------------------------------------------------------|

Then repeat the "Purple Hazes" bit

After "Purple hazes"
e|--------------------------------------------------------------------------|
B|--------------------------------------------------------------------------|
G|-12------14---------------------------------------------------------------|
D|-12-(x8)-14-(x5)--(let the 5th strum ring)--------------------------------|
A|-10------12---------------------------------------------------------------|
E|--------------------------------------------------------------------------|
   G5      A5

Just Bass and drums here

I got lost in the desert baby
I found temples made out of paper    Oh Yeh!!!

They were druming with golden bones
e|--------------------------------------------------------------------------|
B|--------------------------------------------------------------------------|
G|-14-----------------------------------------------------------------------|
D|-14-(strum this chord for the whole bar)----------------------------------|
A|-12-----------------------------------------------------------------------|
E|--------------------------------------------------------------------------|
   A5

Building dreams out of the homes
e|--------------------------------------------------------------------------|
B|--------------------------------------------------------------------------|
G|--------------------------------------------------------------------------|
D|--------------------------------------------------------------------------|
A|----------------10---(x4)-------------------------------------------------|
E|-12--12-12-10-12----------------------------------------------------------|

Then I let go of everything (keep strumming these, do not let ring)
e|--------------------------------------------------------------------------|
B|--------------------------------------------------------------------------|
G|-16-----------------14----------------------------------------------------|
D|-16-----------------14----------------------------------------------------|
A|-14-----------------12----------------------------------------------------|
E|--------------------------------------------------------------------------|
   B5                 A5

   Into another Dimension
e|--------------------------------------------------------------------------|
B|--------------------------------------------------------------------------|
G|--------------------------------------------------------------------------|
D|--------------------12--12-14-12------------------------------------------|
A|------10-11-12-13-14------------14-13-12-11-10----------------------------|
E|-10-12----------------------------------------12--------------------------|

   2nd part of the riff
e|---------------------------------------------------------------------------|
B|---------------------------------------------------------------------------|
G|-------------------11--11-13-11--------------------------------------------|
D|------9-10-11-12-13------------13-12-11-10-9-------------------------------|
A|--9-11---------------------------------------11----------------------------|
E|---------------------------------------------------------------------------|

Outro riff
e|--------------------------------------------------------------------------|
B|--------------------------------------------------------------------------|
G|--------------------------------------------------------------------------|
D|---------------------------------------14---------------------------------|
A|-----------------------------10--(x4)--14--(let ring)---------------------|
E|--12-12-12-12-12-12--12-10-12----------12---------------------------------|
                                         E5

Thats it. Hope its helpful
Добавлено: 19.09.2013
Другие материалы по этой песне:

Страница создана 29.03.2012
http://primanota.ru/wolfmother/dimension-chords.htm
Привет, Гость.
Предлагаем пройти революционный курс по гитаре.
Подарок от PrimaNota.Ru, забирай!