PrimaNota.ru - самый крупный в мире бесплатный архив песенных текстов, аккордов, табулатур и нот


Wolfmother - Pyramid - текст песни, таба, бас-таба, видео

Регистрация Запомнить меня
Войти через:  Facebook Google Twitter Vk Yandex Mail.ru

Wolfmother - Pyramid - текст песни, таба, бас-таба, видео

Печатать
Просмотров: 514
Авторы: Myles Heskett, Chris Ross, Andrew Stockdale

Artist: Wolfmother
Song: Pyramid (solo)
Guitarist: Andrew Stockdale

e|-----------------------------------------------------------------|
b|------------------------------------------3-8b8.5~-8b8.5~-8b8.5~-|
g|-------------3-5b7-(7)-5p3---3~-------3-5------------------------|
d|---------3-5---------------5----5-3-5----------------------------|
a|-----3-5---------------------------------------------------------|
E|-3-6-------------------------------------------------------------|

        X8
e|-6-{6h8p6--}-8bp6---6---------------------------------|
b|---{------8}------8---8p6-----------------------------|
g|--------------------------5-5p3---3-------------------|
d|--------------------------------5---5-5p3---3---------|
a|------------------------------------------5---5-5p3-5-|
E|------------------------------------------------------|

e|-------------------------------------------------|
b|---------------------------------3-8b8.5~-8b8.5~-|
g|-5sb7-5b7-5b7-5p3------------3-5-----------------|
d|------------------5~---5-3-5---------------------|
a|-------------------------------------------------|
E|-------------------------------------------------|

e|-6-8sb10-----8b10-8b10-8p6----6-8sb10-8sb10-|
b|---------------------------8~---------------|
g|--------------------------------------------|
d|--------------------------------------------|
a|--------------------------------------------|
E|--------------------------------------------|

Symbol Key:
b - Bend
sb - Slow bend
h - Hammer On
p- Pull off
~ - Vibrato
(7) - play the note when its bend
Добавлено: 18.05.2012
Другие материалы по этой песне:

Страница создана 26.02.2012
http://primanota.ru/wolfmother/pyramid-chords.htm
Привет, Гость.
Предлагаем пройти революционный курс по гитаре.
Подарок от PrimaNota.Ru, забирай!