PrimaNota.ru - самый крупный в мире бесплатный архив песенных текстов, аккордов, табулатур и нот


Wolfmother - Apple Tree - текст песни, таба, видео

Регистрация Запомнить меня
Войти через:  Facebook Google Twitter Vk Yandex Mail.ru

Wolfmother - Apple Tree - текст песни, таба, видео

Печатать
Просмотров: 404
Авторы: Myles Heskett, Chris Ross, Andrew Stockdale

Apple Tree                        Wolfmother

   4/4
    Gtr I
    E E Q  H      E E Q  H      E E Q  H      E E Q  H
||--6-----------|-6-----------|-6-----------|-6---------|
||o-6-----------|-6-----------|-6-----------|-6---------|
||--7-----------|-7-----------|-7-----------|-7---------|
||--8-----------|-8-----------|-8-----------|-8---------|
||o-8-----------|-8-----------|-8-----------|-8---------|
||--6-----------|-6-----------|-6-----------|-6---------|


  E E E E E S S +S  S E   E E E E E S S +S  S E
|-6-6-6-6-6-x-----------|-6-6-6-6-6-x-----------|
|-6-6-6-6-6-x-8-(8)-6-6-|-6-6-6-6-6-x-8-(8)-6-6-|
|-7-7-7-7-7-x-8-(8)-6-6-|-7-7-7-7-7-x-8-(8)-6-6-|
|-8-8-8-8-8-x-8-(8)-6-6-|-8-8-8-8-8-x-8-(8)-6-6-|
|-8-8-8-8-8-x-6-(6)-6-6-|-8-8-8-8-8-x-6-(6)-6-6-|
|-6-6-6-6-6-x-----------|-6-6-6-6-6-x-----------|


  E E E E E S S +S  S E   E E E E E S S +S  S E
|-6-6-6-6-6-x-----------|-6-6-6-6-6-x-------------||
|-6-6-6-6-6-x-8-(8)-6-6-|-6-6-6-6-6-x-8-(8)-6-6--o||
|-7-7-7-7-7-x-8-(8)-6-6-|-7-7-7-7-7-x-8-(8)-6-6---||
|-8-8-8-8-8-x-8-(8)-6-6-|-8-8-8-8-8-x-8-(8)-6-6---||
|-8-8-8-8-8-x-6-(6)-6-6-|-8-8-8-8-8-x-6-(6)-6-6--o||
|-6-6-6-6-6-x-----------|-6-6-6-6-6-x-------------||


    Slower Q=84
    H    +Q.   E   H    +Q.   E  4x
||---------------|---------------||
||o--------------|--------------o||
||---------------|---------------||
||--8----(8)---6-|-8----(8)---6--||
||o-8----(8)---6-|-8----(8)---6-o||
||--6----(6)---4-|-6----(6)---4--||


                             |--3--|  |--3--|  |--3--|
  H    +Q.   E   W           E  E  E  E  E  E  E  E  E  E E   W
|--------------|----------|---------------------------------|------|
|--------------|----------|---------------------------------|------|
|--------------|----------|---------------------------------|------|
|-8----(8)---6-|-8--------|-11-11-11-11-11-11-11-11-11-11-6-|-8----|
|-8----(8)---6-|-8--------|-11-11-11-11-11-11-11-11-11-11-6-|-8----|
|-6----(6)---4-|-6--------|--9--9--9--9--9--9--9--9--9--9-4-|-6----|


                                                                 D.C. al Coda
   |--3--|  |--3--|  |--3--|                    |--3--|  |--3--|  |--3--|
   E  E  E  E  E  E  E  E  E  E E   W           E  E  E  E  E  E  E  E  E  E E
|---------------------------------|----------|---------------------------------|
|---------------------------------|----------|---------------------------------|
|---------------------------------|----------|---------------------------------|
|-11-11-11-11-11-11-11-11-11-11-6-|-8--------|-11-11-11-11-11-11-11-11-11-11-6-|
|-11-11-11-11-11-11-11-11-11-11-6-|-8--------|-11-11-11-11-11-11-11-11-11-11-6-|
|--9--9--9--9--9--9--9--9--9--9-4-|-6--------|--9--9--9--9--9--9--9--9--9--9-4-|


                           1.
    Gtr I
    Q  S S S S S S E E E   Q  S S S S S S E E E
||-----------------------|--------------------------||
||o----------------------|-------------------------o||
||-----------------------|--------------------------||
||--8------------6-8-8-6-|-8------------6-8-8-6-----||
||o-8------4-6s8-------6-|-8------4-6s8-------6----o||
||--6--4h6-------------4-|-6--4h6-------------4-----||
|
|   Gtrs II, III
|   Q  Q   Q     E     E   Q  Q   Q   E       E
||-----------------------|--------------------------||
||o----------------------|-------------------------o||
||-----------------------|--------------------------||
||--8------------------6-|-8------------------6-----||
||o-8------------------6-|-8------------------6----o||
||--6------------------4-|-6------------------4-----||


  2.
  Q  S S S S S S E E E   H       S S E E E   Q  S S S S  S S  E  E E
|----------------------|-------------------|------------------------------|
|----------------------|-------------------|---------------9-11-11--------|
|--------------------6-|-8b10r===8p6---6---|--------6-8s10---------6------|
|-8------------6-8-8---|-------------8---8-|-8--6h8-----------------------|
|-8------4-6s8---------|-------------------|------------------------------|
|-6--4h6---------------|-------------------|------------------------------|
|
| Q  Q   Q   E       E   Q     Q   Q   E E   Q      Q         Q      E  E
|----------------------|-------------------|------------------------------|
|----------------------|-------------------|------------------------------|
|----------------------|-------------------|------------------------------|
|-8------------------6-|-8---------------6-|-8--------------------------6-|
|-8------------------6-|-8---------------6-|-8--------------------------6-|
|-6------------------4-|-6---------------4-|-6--------------------------4-|


  H        S S E E E   Q  S S S S  S S  E  E E
|--------------------|-----------------------9-|
|--------------------|---------------9-11-11---|
|-8b10r====8-6---6---|--------6-8s10-----------|
|--------------8---8-|-8--6h8------------------|
|--------------------|-------------------------|
|--------------------|-------------------------|
|
| Q     Q  Q   E   E   Q  Q   Q    E       E
|--------------------|-------------------------|
|--------------------|-------------------------|
|--------------------|-------------------------|
|-8----------------6-|-8-------------------6---|
|-8----------------6-|-8-------------------6---|
|-6----------------4-|-6-------------------4---|


                                  ~~
   Q       E  E  S S  S  S  S  S  E
|-11b13===13-13-11p9------------------|
|--------------------11-11-11-11-11---|
|-------------------------------------|
|-------------------------------------|
|-------------------------------------|
|-------------------------------------|
|
|  Q       Q     Q    E           E
|-------------------------------------|
|-------------------------------------|
|-------------------------------------|
|--8------------------------------6---|
|--8------------------------------6---|
|--6------------------------------4---|


   ~~~~~~~~~~~~~~
   Q.     E  +Q.    E    H         S S  E E  E    Q  S S S S  S S  E  E  E
|-------------------9-|-11b13-----11p9----9----|------------------------------|
|-11-----11-(11)------|----------------11---11-|-11-------------9-11-11-------|
|---------------------|------------------------|---------6-8s10---------------|
|---------------------|------------------------|-----6h8----------------------|
|---------------------|------------------------|------------------------------|
|---------------------|------------------------|------------------------------|
|
|  Q   Q      Q   E E    Q     Q   Q    E    E    Q  Q        Q       E  E
|---------------------|------------------------|------------------------------|
|---------------------|------------------------|------------------------------|
|---------------------|------------------------|------------------------------|
|--8----------------6-|--8-------------------6-|--8----------------------6----|
|--8----------------6-|--8-------------------6-|--8----------------------6----|
|--6----------------4-|--6-------------------4-|--6----------------------4----|


   |--3--|  |--3--|  |--3--|
   E  E  E  E  E  E  E  E  E  S  S  E
|-18-16----16-------------------------|
|-------18----18-17-16-14----14-16-16-|
|-------------------------15----------|
|-------------------------------------|
|-------------------------------------|
|-------------------------------------|
|
|  |--3--|  |--3--|  |--3--|
|  E  E  E  E  E  E  E  E  E  E  E
|-------------------------------------|
|-------------------------------------|
|-------------------------------------|
|-11-11-11-11-11-11-11-11-11-11--6----|
|-11-11-11-11-11-11-11-11-11-11--6----|
|--9--9--9--9--9--9--9--9--9--9--4----|


                                        |--3--|  |--3--|  |--3--|
   E     +S   S  Q    E     +E    Q     E  E  E  E  E  E  E  E  E  +Q
|--------------------11b13-(11)-/18--|-20p18p16----16---------------------|
|-16b18-(16)p14----------------------|----------18----18-17-16s13-(13)----|
|---------------15\------------------|------------------------------------|
|------------------------------------|------------------------------------|
|------------------------------------|------------------------------------|
|------------------------------------|------------------------------------|
|
|                                       |--3--|  |--3--|  |--3--|
|  W                                    E  E  E  E  E  E  E  E  E   E  E
|------------------------------------|------------------------------------|
|------------------------------------|------------------------------------|
|------------------------------------|------------------------------------|
|--8---------------------------------|-11-11-11-11-11-11-11-11-11--11--6--|
|--8---------------------------------|-11-11-11-11-11-11-11-11-11--11--6--|
|--6---------------------------------|--9--9--9--9--9--9--9--9--9---9--4--|


   TP TP
         |--3--|           |--3--|
   S  S  S  S  S  E  E     S  S  S  E Q
|---------------------------------------|
|-------------14-16-16b18r16-14---------|
|-13-15-13-15-------------------15-15---|
|---------------------------------------|
|---------------------------------------|
|---------------------------------------|
|
|  W
|---------------------------------------|
|---------------------------------------|
|---------------------------------------|
|--8------------------------------------|
|--8------------------------------------|
|--6------------------------------------|


    |--3--|  |---3----|  |--3--|  |--3--|
    E  E  E  E     E  E  E  E  E  E  E  E
|-----16-18-18b20r18p16----16-------------|
|-/18-------------------18----18-17-16-14-|
|-----------------------------------------|
|-----------------------------------------|
|-----------------------------------------|
|-----------------------------------------|
|
|   |--3--|  |---3----|  |--3--|
|   E  E  E  E     E  E  E  E  E  E  E
|-----------------------------------------|
|-----------------------------------------|
|-----------------------------------------|
|--11-11-11-11----11-11-11-11-11-11--6----|
|--11-11-11-11----11-11-11-11-11-11--6----|
|---9--9--9--9-----9--9--9--9--9--9--4----|


  Moderately Q=132
   ~~~~~~~~~~~~~~~~~~~
   W              +W              W             W             W
|--------------|----------------|-------------|-------------|---------*|
|-15-----------|-(15)-----------|-------------|-------------|---------*|
|--------------|----------------|-------------|-------------|---------*|
|--------------|----------------|-------------|-------------|---------*|
|--------------|----------------|-------------|-------------|---------*|
|--------------|----------------|-------------|-------------|---------*|
|
|  E E Q  H        E  E Q  H      E E Q  H      E E Q  H      H     H
|--6-----------|---6------------|-6-----------|-6-----------|-6\------*|
|--6-----------|---6------------|-6-----------|-6-----------|-6\------*|
|--7-----------|---7------------|-7-----------|-7-----------|-7\------*|
|--8-----------|---8------------|-8-----------|-8-----------|-8\------*|
|--8-----------|---8------------|-8-----------|-8-----------|-8\------*|
|--6-----------|---6------------|-6-----------|-6-----------|-6\------*|


Добавлено: 05.07.2013
Другие материалы по этой песне:
  • Аккорды и текст

Страница создана 03.03.2012
http://primanota.ru/wolfmother/apple-tree-chords.htm
Привет, Гость.
Предлагаем пройти революционный курс по гитаре.
Подарок от PrimaNota.Ru, забирай!