PrimaNota.ru - самый крупный в мире бесплатный архив песенных текстов, аккордов, табулатур и нот


Wolfmother - Caroline - текст песни, таба, видео

Регистрация Запомнить меня
Войти через:  Facebook Google Twitter Vk Yandex Mail.ru

Wolfmother - Caroline - текст песни, таба, видео

Печатать
Просмотров: 290
Авторы музыки: Andrew Stockdale
Авторы текста: Andrew Stockdale
--------------------------------------------------------------------------
			     Caroline by Wolfmother

--------------------------------------------------------------------------
Tabbed by: Sean Dubb  
Tuning: Standard

One of Wolfmother's best songs. I think I got the basics down.




Em         G               C                  A        B    Em 
   I can remember, I can remember a time of beginning  to  relate
Em             G                  C                     A           B       Em
   To who you are, who you really are, never look back 'cause we've come so far
Em            G                  C            A        B      Em
   There's a place, I can never return, so I decide to let it burn
Em      G                        C                   A     B        Em
   Far away, is where I'd rather be than to see that look upon your face


Em             G      C
   Our love is all   around here
Em           G           C
   She goes away just to be near


Em   G             C             A     B    Em
Caro-line, tell me why you wanna leave this way?
Caro-line, tell me where you gonna go this time?
'Cause all we are, is all we are and now it's up to you

Power chords playing in the background
  E  G              C            A     B    E
e|--------------------------------------------------------------|
B|--------------------------------------------------------------|
G|--------------------------------------------------------------|
D|2--5--------------10------------7-----9----2------------------|
A|2--5--------------10------------7-----9----2------------------|
E|0--3---------------8------------5-----7----0------------------|


Em     G           C                 A         B    Em
   Caroline, we'll find a place that makes you feel apart
Em         G                 C                  A     B    Em
   Well it gets you high and makes you feel the possi-bili-ty
Em                   G                   C                     A            B      Em
  And who you really are, who you really are, never look back 'cause we've come so far
Em           G                 C                A           B       Em
   There's a place I can never return, and from here you'll start tonight



Em             G     C
   Our love is all   around here
Em           G           C
   She goes away just to be near

Power chords playing in the background
  E    C   B   G    C   B     E
e|--------------------------------------------------------------|
B|--------------------------------------------------------------|
G|--------------------------------------------------------------|
D|2----10---9---5----10---9-----2-------------------------------|
A|2----10---9---5----10---9-----2-------------------------------|
E|0-----8---7---3-----8---7-----0-------------------------------|






  E  G              C            A     B    E
e|--------------------------------------------------------------|
B|--------------------------------------------------------------|
G|--------------------------------------------------------------|
D|2--5--------------10------------7-----9----2------------------|
A|2--5--------------10------------7-----9----2------------------|
E|0--3---------------8------------5-----7----0------------------|


Caro-line, tell me why you wanna leave this way?
Caro-line, tell me where you gonna go tonight?
'Cause all we are, is all we are and there's no reason why
'Cause all we are, is all we are, don't let it go to waste
                                 Don't you let it go to waste
                                 Don't you ever go away
           



Background solo
        
e|--------------------------------------------------------------|
B|-----15-------------15--------------------15----15------------|
G|-14fb--14fb~----14fb--14pb--14-12--14-14fb--14fb--14fb--------|
D|--------------------------------------------------------------|
A|--------------------------------------------------------------|
E|--------------------------------------------------------------|

e|---------------------------------15fb~--15pb-h12-15fb~--------|
B|-----15------------15-----------------------------------------|
G|-14fb--14fb~---14fb--14fb~------------------------------------|
D|--------------------------------------------------------------|
A|--------------------------------------------------------------|
E|--------------------------------------------------------------|

e|--------------------------------------------------------------|
B|-----15------------15------------------15----15---------------|
G|-14fb--14fb~---14fb--14pb-14-12-14-14fb--14fb--14fb~----------|
D|--------------------------------------------------------------|
A|--------------------------------------------------------------|
E|--------------------------------------------------------------|


e|--------------------------------------------------------------|
B|-----15------------15-----------------------------------------|
G|-14fb--14fb~---14fb--14pb-14-12-14-14fb-14-12-11--------------|
D|-------------------------------------------------14~----------|
A|--------------------------------------------------------------|
E|--------------------------------------------------------------|



Whew. That took way longer than I thought it would...
Hope this helps.


| fb  full bend
| pb  pre-bend
| h  hammer-on
| p  pull-off
| ~  vibrato
| +  harmonic
| x  Mute note
==================================================================

Добавлено: 02.12.2013
Другие материалы по этой песне:
  • Аккорды и текст

Страница создана 24.06.2013
http://primanota.ru/wolfmother/caroline-chords.htm
Привет, Гость.
Предлагаем пройти революционный курс по гитаре.
Подарок от PrimaNota.Ru, забирай!