PrimaNota.ru - самый крупный в мире бесплатный архив песенных текстов, аккордов, табулатур и нот


Slaves - Wow7am - таба, видео

Регистрация Запомнить меня
Войти через:  Facebook Google Twitter Vk Yandex Mail.ru

Slaves - Wow7am - таба, видео

Печатать
Просмотров: 195
-------------------------------------------------------------------------------
                             Wow!!!7AM - Slaves
-------------------------------------------------------------------------------
Tabbed by: shaunus56
E-mail: shaunus123@hotmail.com

Tuning: Standard


Main Riff:    The whole song is mostly just a variation on this riff (/three chords), 
                sometimes palm muted and other times just let ring

e|----------------------------|
B|----------------------------|
G|----------------------------|
D|---5--5-----4--4-4-x-2-x-2--|         
A|---5--5-----4--4-4-x-2-x-2--|
E|---3--3--0--2--2-2-x-0-x-0--|


Chorus fills played after main riff:

e|---------------------------|   |--0---0--0----|
B|---------------------------|   |--3b--3b-3b---|
G|---b2-2-2-2-2-2------------|   |--------------|
D|---------------------------|   |--------------|
A|---------------------------|   |--------------|
E|---------------------------|   |--------------|
     ^Pick whilst bending         



Post chorus alt ending - played last time before verse 2:

e|--------|
B|--------|
G|--------|
D|---/9~~-|
A|---/7~~-|
E|--------|


Bridge

e|--------------------------------------------------------------|\
B|--------------------------------------------------------------| \ 
G|-------4-------4-------4----4-------4-------4----x-7-8-9~-9-9-|  x2
D|---5-5---5-4-4---4-2-2---2----2-5-5---5-4-4---4--x------------|  /
A|---------------------------------------------------5-6-7~-7-7-| /
E|--------------------------------------------------------------|/


Then play another verse, chorus (main riff) and bridge


Outro

Listen to song to get amount of strums for each chord
e|-----------------|\             |----------------|
B|-----------------| \            |----------------|
G|---12---11---9---|  x4   End on |---x-9-x-9~\\---|
D|---12---11---9---|  /           |---x-9-x-9~\\---|
A|---10---9----7---| /            |---x-7-x-7~\\---|
E|-----------------|/             |----------------|



************************************

| /   slide up
| \   slide down
| h   hammer-on
| p   pull-off
| ~   vibrato
| +   harmonic
| x   Mute note
| b   Bend
| pb  Pre-bend
| br  Bend release
| pbr Pre-bend release
| brb Bend release bend

************************************
Добавлено: 30.10.2015
Другие материалы по этой песне:
  • Аккорды и текст

Страница создана 30.10.2015
http://primanota.ru/slaves/wow7am-chords.htm
Привет, Гость.
Предлагаем пройти революционный курс по гитаре.
Подарок от PrimaNota.Ru, забирай!