PrimaNota.ru - самый крупный в мире бесплатный архив песенных текстов, аккордов, табулатур и нот


Slaves - The Hunter - таба, видео

Регистрация Запомнить меня
Войти через:  Facebook Google Twitter Vk Yandex Mail.ru

Slaves - The Hunter - таба, видео

Печатать
Просмотров: 1228
-------------------------------------------------------------------------------
                             THE HUNTER - Slaves
-------------------------------------------------------------------------------
Tabbed by: Shaun
E-mail: shaunus123@hotmail.com

Tuning:Standard


Intro:

  PM -    - -   - -  -    - -   - -  -    - -   - -  -    - -     .1    .2
e|------------------------------------------------------------|-----|-----|
B|------------------------------------------------------------|-----|-----|
G|------------------------------------------------------------|-----|-----| 
D|------------------------------------------------------------|-----|-----|
A|------3-----2---------3-----2---------3-----2---------3-----|-xxx-|-x-x-|
E|---1----4-3---4-3--1----4-3---4-3--1----4-3---4-3--1----4-3-|-xxx-|-x-x-|


Verse 1:   (No Drums)

  PM -    - -   - -  -    - -   - -  -    - -   - -  -    - -
e|---------------------------------------------------------------------------|
B|---------------------------------------------------------------------------|
G|---------------------------------------------------------------------------|    x2
D|--------------------------------------------------------------4-3----------|
A|------3-----2---------3-----2---------3-----2---------3-----2--------------| 
E|---1----4-3---4-3--1----4-3---4-3--1----4-3---4-3--1----4-3----------------| 

  PM -    - -   - -  -    - -   - -  -    - -   - -  -    - -
e|---------------------------------------------------------------------------|
B|--------------------------------------------------------------7-6----------|
G|------5-----4---------5-----4---------5-----4---------5-----4--------------|
D|---3----6-5---6-5--3----6-5---6-5--3----6-5---6-5--3----6-5----------------|
A|---------------------------------------------------------------------------|
E|---------------------------------------------------------------------------|

  PM -    - -   - -  -    - -   - -  
e|---------------------------------------------------------------------------|
B|---------------------------------------------------------------------------|
G|------5-----4---------5-----4----------------------------------------------|
D|---3----6-5---6-5--3----6-5---6-5------------------------------------------|
A|--------------------------------------3-----2------------------------------|
E|-----------------------------------1----4-3---4-3-1------------------------|


Pre/Post Verse/Main Riff:     (Drums come in)

e|---------------------------------------------------------------------------|
B|---------------------------------------------------------------------------|
G|---------------------------------------------------------------------------|    x2
D|--------------------------------------------------------------4-3----------|
A|------3-----2---------3-----2---------3-----2---------3-----2--------------| 
E|---1----4-3---4-3--1----4-3---4-3--1----4-3---4-3--1----4-3----------------|


Verse 2:   
  PM -----------------------------------------------------------
e|------------------------------------------------------------------|
B|------------------------------------------------------------------|
G|------------------------------------------------------------------|    
D|--------------------------------------------------------------4-3-|
A|------3-----2---------3-----2---------3-----2---------3-----2-----| 
E|---1----4-3---4-3--1----4-3---4-3--1----4-3---4-3--1----4-3-------|

  PM -----------------------------------------------------------
e|------------------------------------------------------------------|
B|--------------------------------------------------------------7-6-|
G|------5-----4---------5-----4---------5-----4---------5-----4-----|
D|---3----6-5---6-5--3----6-5---6-5--3----6-5---6-5--3----6-5-------|
A|------------------------------------------------------------------|
E|------------------------------------------------------------------|

PM ----------------------------------------------------------------
e|------------------------------------------------------------------|
B|------------------------------------------------------------------|
G|------------------------------------------------------------------|    
D|------------------------------------------------------------------|
A|------3-----2---------3-----2---------3-----2---------3-----2-----| 
E|---1----4-3---4-3--1----4-3---4-3--1----4-3---4-3--1----4-3---4-3-|


Pre-Chorus:

e|---------------------------------------------------------------|
B|---------------------------------------------------------------|
G|---------------------------------------------------------------|
D|---------------------------------------------------------------|
A|--/3--2-----2-----3--2-----2---2-3--2-----2-----3--2-----2-----|
E|--------4-3---4-3------4-3---4--------4-3---4-3------4-3---4-3-|


Chorus:

e|------------------------------|
B|------------------------------|
G|------------------------------|
D|------------xxx----------x-x--|   x4
A|------3-----xxx----3-----x-x--|
E|---1----4-3-xxx-1----4-3-x-x--|


Post-Chorus:

 PM -    - -   - -  -    - -   - -  -    - -   - -  -    - -
e|---------------------------------------------------------------------------|
B|---------------------------------------------------------------------------|
G|---------------------------------------------------------------------------|    x2
D|--------------------------------------------------------------4-3----------|
A|------3-----2---------3-----2---------3-----2---------3-----2--------------| 
E|---1----4-3---4-3--1----4-3---4-3--1----4-3---4-3--1----4-3----------------| 


Bridge:

  PM-------------------------------------------------------------    
e|--------------------------------------------------------------------------------------------|
B|--------------------------------------------------------------------------------------------|  
G|--------------------------------------------------------------------------------------------|
D|----------------------------------------------------------------------------3-3-3-3-3-3-3-3-|
A|--------------------------------------------------------------3-3-3-3-3-3-3-3-3-3-3-3-3-3-3-|
E|1-1-1-1-1-1-1-1-1-1-1-1-1-(continue appropriately until....)--1-1-1-1-1-1-1-1-1-1-1-1-1-1-1-|

Throughout the bridge he occasionally accents some of the notes with power chords(listen for timing), towards 
the end he plays it louder,releasing the palm mute gradually


Chorus:

e|------------------------------|
B|------------------------------|
G|------------------------------|
D|------------xxx----------x-x--|   x4
A|------3-----xxx----3-----x-x--|
E|---1----4-3-xxx-1----4-3-x-x--|
                           ^ ^(miss mutes on last time)


END

************************************

| /   slide up
| \   slide down
| h   hammer-on
| p   pull-off
| ~   vibrato
| +   harmonic
| x   Mute note
| b   Bend
| pb  Pre-bend
| br  Bend release
| pbr Pre-bend release
| brb Bend release bend

************************************
Добавлено: 25.07.2015
Другие материалы по этой песне:

Страница создана 25.07.2015
http://primanota.ru/slaves/hunter-chords.htm
Привет, Гость.
Предлагаем пройти революционный курс по гитаре.
Подарок от PrimaNota.Ru, забирай!