PrimaNota.ru - самый крупный в мире бесплатный архив песенных текстов, аккордов, табулатур и нот


Slaves - Sugar Coated Bitter Truth - таба, видео

Регистрация Запомнить меня
Войти через:  Facebook Google Twitter Vk Yandex Mail.ru

Slaves - Sugar Coated Bitter Truth - таба, видео

Печатать
Просмотров: 68
Slaves - Sugar Coated Bitter Truth (Are You Satisfied?!?!)

Hi, so ive been getting into this new punk-esque band 'Slaves'. They're really sick and have just released
their new album. Like any guitarist I was itching to learn all those riffs and licks on my guitar when I
couldn't find any tabs for the final track on the album 'Sugar Coated Bitter Truth'. So for all those out
there like me. Here you go! 

*Note: Add some Echo, it sounds sick!*

INTRO/VERSE

e|---------------------------------------------------------------------------|
B|---------------------------------------------------------------------------|
G|---------------------------------------------------------------------------|
D|---------------------------------------------------------------------------|
A|----7-5-----------7-5-----------7-5---------7-7-7-5-5-5-5-3----------------|
E|--5-----8-5-8-5-5-----8-5-8-5-5-----8-5-8-5--------------------------------|


CHORUS

e|---------------------------------------------------------------------------|
B|---------------------------------------------------------------------------|
G|---------------------------------------------------------------------------|
D|--7-------------7-------------7--------------------------------------------|
A|--7-7-5---------7-7-5---------7-7-5---------7-7-7-5-5-5-5-3----------------|
E|--5-----8-5-8-5-5-----8-5-8-5-5-----8-5-8-5--------------------------------|


OUTRO

e|---------------------------------------------------------------------------|
B|---------------------------------------------------------------------------|
G|-5-5-5-5-5-5-5-5-7-7-7-7-7-7-7-7-------------------------------------------|
D|-5-5-5-5-5-5-5-5-7-7-7-7-7-7-7-7-7-*-*-7-*-*-7-*-*-7-*-*-------------------|
A|-3-3-3-3-3-3-3-3-5-5-5-5-5-5-5-5-7-*-*-7-*-*-7-*-*-7-*-*-------------------|
E|---------------------------------5-*-*-5-*-*-5-*-*-5-*-*-------------------|


Idk, hopefully this helps (:
Добавлено: 27.04.2016
Вам также может быть интересно:
Другие материалы по этой песне:
  • Аккорды и текст

Страница создана 27.04.2016
http://primanota.ru/slaves/sugar-coated-bitter-truth-chords.htm
Привет, Гость.
Предлагаем пройти революционный курс по гитаре.
Подарок от PrimaNota.Ru, забирай!