PrimaNota.ru - самый крупный в мире бесплатный архив песенных текстов, аккордов, табулатур и нот


Slaves - Go Cover - таба, видео

Регистрация Запомнить меня
Войти через:  Facebook Google Twitter Vk Yandex Mail.ru

Slaves - Go Cover - таба, видео

Печатать
Просмотров: 76
-------------------------------------------------------------------------------
                             GO (COVER) - SLAVES
-------------------------------------------------------------------------------
Tabbed by:AL
E-mail:alex.needham8@gmail.com

Tuning:standard

NOTE:EXTREMLY FAST PICKING
e|-------------------------------------------------------------------------|
B|-------------------------------------------------------------------------|
G|-------------------------------------------------------------------------|X8
D|---------------------------------------------------------8-8-5-5-5-6-6-6-|
A|5-5-5-5-5-5-5-5-5--5-5-5-5-5-5-5-5-5--5-5-5-5-5-5-5-5-5------------------|
E|-------------------------------------------------------------------------|

e|--------10-12-13-12-10-------------------------10-12-13-12-10----10----10-12-|
B|-----------------------13-10----------------------------------13----13-------|
G|-----------------------------12-10-9-----------------------------------------|
D|-----------------------------------------------------------------------------|X2
A|5--5--5--------------------------------5--5--5-------------------------------|
E|-----------------------------------------------------------------------------|


e|13-12-10----10----10-12-|
B|---------13----13-------|
G|------------------------|
D|------------------------|X3
A|------------------------|
E|------------------------|

e|-------------------------------------------------------------------------|
B|-------------------------------------------------------------------------|
G|-------------------------------------------------------------------------|X4
D|---------------------------------------------------------8-8-5-5-5-6-6-6-|
A|5-5-5-5-5-5-5-5-5--5-5-5-5-5-5-5-5-5--5-5-5-5-5-5-5-5-5------------------|
E|-------------------------------------------------------------------------|


e|--------10-12-13-12-10-------------------------10-12-13-12-10----10----10-12-|
B|-----------------------13-10----------------------------------13----13-------|
G|-----------------------------12-10-9-----------------------------------------|
D|-----------------------------------------------------------------------------|X2
A|5--5--5--------------------------------5--5--5-------------------------------|
E|-----------------------------------------------------------------------------|


e|13-12-10----10----10-12-|
B|---------13----13-------|
G|------------------------|
D|------------------------|X3
A|------------------------|
E|------------------------|

e|-------------------------------------------------|
B|---------7b---------5b----------7b---------------|
G|---------5b---------3b----------5b---------------|
D|-----------------------------------8-8-5-5-5-6-6-|X2
A|5--5--5-----5--5--5----5--5--5-------------------|
E|-------------------------------------------------|

e|------------------------------------------------------------------------------------|
B|------------------------------------------------------------------------------------|
G|------------------------------------------------------------------------------------|
D|------------------------------------------------------------------------------------|X2
A|5-5-5-5-5-5-5-5--3-3-3-3-3-3-3-3--2-2-2-2-2-2-2-2--1-1-1-1-1-1-1-1--3-3-3-3-3-3-3-3-|
E|------------------------------------------------------------------------------------|

e|----------------------------------------------------------------------------------------|
B|----------------------------------------------------------------------------------------|
G|----------------------------------------------------------------------------------------|
D|----------------------------------------------------------------------------------------|
A|5-5-5-5-5-5-5-5--5-5-5-5-5-5-5-5--5-5-5-5-5-5-5-5-5--5-5-5-5-5-5-5-5-5--5-5-5-5-5-5-5-5-|
E|----------------------------------------------------------------------------------------|

e|--------------------------------------------------------|
B|--------------------------------------------------------|
G|--------------------------------------------------------|
D|--------------------------------------------------------|
A|6-6-6-6-6-6-6-6--7-7-7-7-7-7-7-7--8-8-8-8-8-8-8-8///\\\-|
E|--------------------------------------------------------|

e|-------------------------------------------------------------------------|
B|-------------------------------------------------------------------------|
G|-------------------------------------------------------------------------|X2
D|---------------------------------------------------------8-8-5-5-5-6-6-6-|
A|5-5-5-5-5-5-5-5-5--5-5-5-5-5-5-5-5-5--5-5-5-5-5-5-5-5-5------------------|
E|-------------------------------------------------------------------------|


e|--------10-12-13-12-10-------------------------10-12-13-12-10----10----10-12-|
B|-----------------------13-10----------------------------------13----13-------|
G|-----------------------------12-10-9-----------------------------------------|
D|-----------------------------------------------------------------------------|X2
A|5--5--5--------------------------------5--5--5-------------------------------|
E|-----------------------------------------------------------------------------|


e|13-12-10----10----10-12---|
B|---------13----13---------|
G|--------------------------|
D|--------------------------|X3
A|--------------------------|
E|--------------------------|

e|----|
B|----|
G|----|
D|----|
A|-5/-|
E|----|
Добавлено: 27.04.2016
Другие материалы по этой песне:
  • Аккорды и текст

Страница создана 27.04.2016
http://primanota.ru/slaves/go-cover-chords.htm
Привет, Гость.
Предлагаем пройти революционный курс по гитаре.
Подарок от PrimaNota.Ru, забирай!