PrimaNota.ru - самый крупный в мире бесплатный архив песенных текстов, аккордов, табулатур и нот


Slaves - Are You Satisfied - аккорды и текст, видео

Регистрация Запомнить меня
Войти через:  Facebook Google Twitter Vk Yandex Mail.ru

Slaves - Are You Satisfied - аккорды и текст, видео

Печатать
Просмотров: 426
Are You Satisfied
Slaves
Song: Are You Satisfied?
Artist: Slaves
Album: Are You Satisfied?
=============================
www.youareallslaves.com
www.instagram.com/slaves
www.smarturl.it/slavesspotify
www.facebook.com/slaves
www.soundcloud.com/slavesband
www.youtube.com/user/slavesuk
www.twitter.com/slaves
=============================




        This is the whole song, the tab for the piano is at the end!

                                     Strumming Pattern 

                 E                          F#   G                          F#    
       
                 d u d u d u d u d u d u d  d    d u d u d u d u d u d u d  d   
               e-0-0---0-0-0---0-0-0---0-0-----|-3-3---3-3-3---3-3-3---3-3-----|
               B-0-0-x-0-0-0-x-0-0-0-x-0-0-----|-3-3-x-3-3-3-x-3-3-3-x-3-3-----|
               G-1-1-x-1-1-1-x-1-1-1-x-1-1-----|-4-4-x-4-4-4-x-4-4-4-x-4-4-----|
               D-2-2-x-2-2-2-x-2-2-2-x-2-2-----|-5-5-x-5-5-5-x-5-5-5-x-5-5-----|
               A-2-2-x-2-2-2-x-2-2-2-x-2-2-----|-5-5-x-5-5-5-x-5-5-5-x-5-5-----|
               E-0-0---0-0-0---0-0-0---0-0--2--|-3-3---3-3-3---3-3-3---3-3--2--|

        =Intro=
  
        E  F# G  F# x2
        
        =Verse=
       E                                F#
        She said "brother, are you satisfied 
       G                                                 F#
        with the way that you've been living your life?" 
       E                                            F#       
        I know its predictable, and somewhat cliché
       G                                                                               F#
        But if you want to get your point across this days you gotta be real real real straight


        =Chorus=
   E                 F# 
        Are you satisfied? 
      G 
        Are you satisfied? 
                              F#                
        Brother, are you satisfied?
      E
        Are you satisfied? 
                              F#
        Brother, are you satisfied? 
      G                        F#  
        Are you satisfied? 

        E  F# G  F#

        E  F# 
  
   G                 F#    E             
        Are you satisfied?
        
        
---------------------------------------

                        
                                        Piano Notes     
        =Intro=
        
         E            G            E            G            E            G
        e---------0-|----------0-|----------0-|----------0-|----------0-|----------0-|
        B-------0---|-3----------|-0------0---|-3----------|-0------0---|-3----------|
        G-----------|------------|------------|------------|------------|------------|
        D-----------|------------|------------|------------|------------|------------|
        A-----------|------------|------------|------------|------------|------------|
        E-----------|------------|------------|------------|------------|------------|

        =Verse=
         E            G            E            G            E            G            E             G
        e---------0-|----------0-|----------0-|----------0-|----------0-|----------0-|-----------0-|---------0-|
        B-0-----0---|-3----------|-0------0---|-3----------|-0------0---|-3----------|-0-------0---|-3---------|
        G-----------|------------|------------|------------|------------|------------|-------------|-----------|
        D-----------|------------|------------|------------|------------|------------|-------------|-----------|
        A-----------|------------|------------|------------|------------|------------|-------------|-----------|
        E-----------|------------|------------|------------|------------|------------|-------------|-----------|


        =Solo=
          E                       G                                                                     
        e----------0-----0---0--|-----------0-----0-------0-------0---|
        B-0------3-----3---3----|-3---0---3-----3-----0-3---3-0-3---3-|
        G-----------------------|-------------------------------------|
        D-----------------------|-------------------------------------|
        A-----------------------|-------------------------------------|
        E-----------------------|-------------------------------------|
          E                                 G                           E                               
        e-------0-----0-------0-------0---|-------0-----0---------0----|-------|
        B-0---3-----3-----0-3---3-0-3---3-|-0---3-----3---3-0--3-----0-|-------|
        G---------------------------------|----------------------------|-------|
        D---------------------------------|----------------------------|-------|
        A---------------------------------|----------------------------|-------|
        E---------------------------------|----------------------------|-------|
                                

        

                               =========================================
                                don't forget to rate! that helps a lot!
                               =========================================
                                                  &    
                             =============================================
                             give me credit if you're using any of my tabs
                             =============================================



¨¨¨¨¨¨¨¨¨¨¨¨¨¨¨¨¨¨¨¨¨¨¨¨¨¨¨¨¨¨¨¨¨¨
-www.confort-reciclaclo.tumblr.com
-www.facebook.com/I.Really.Sux
-www.last.fm/user/mr_ahab
-f.alejandro27@gmail.com

Добавлено: 30.10.2015
Другие материалы по этой песне:
  • Аккорды и текст

Страница создана 30.10.2015
http://primanota.ru/slaves/are-you-satisfied-chords.htm
Привет, Гость.
Предлагаем пройти революционный курс по гитаре.
Подарок от PrimaNota.Ru, забирай!