PrimaNota.ru - самый крупный в мире бесплатный архив песенных текстов, аккордов, табулатур и нот


Slaves - Beauty Quest - таба, видео

Регистрация Запомнить меня
Войти через:  Facebook Google Twitter Vk Yandex Mail.ru

Slaves - Beauty Quest - таба, видео

Печатать
Просмотров: 116
Уроки эстрадного вокала в Санкт-Петербурге
-------------------------------------------------------------------------------
                            Beauty Quest - Slaves
-------------------------------------------------------------------------------
Tabbed by: Rory H
E-mail: rdeh10@googlemail.com

Tuning: EADGBe

Just go fuckin mad u know? Also this song is played with a harmoniser at -1 octave for the majority, as
is standard for Slaves, just take it off when it sounds inappropriate (such as power chord times). 
If there are any corrections or improvements, please lemme know in the comments or by email! Enjoy.

INTRO:
e|------------------|------------------------|
B|------------------|------------------------|
G|------------------|------------------------|
D|-x4-4-4-4-4-4-4-4-|-x4-4-4-4-x4-4-5-x4-4-5-| x2
A|-xx-x-x-x-x-x-x-x-|-xx-x-x-x-xx-x-x-xx-x-x-|
E|-x2-2-2-2-2-2-2-2-|-x2-2-2-2-x2-2-3-x2-2-3-|

e|------------------|------------------------|------------------|-----------------------|
B|------------------|------------------------|------------------|-----------------------|
G|------------------|------------------------|------------------|-----------------------|
D|-x4-4-4-4-4-4-4-4-|-x4-4-4-4-x4-4-5-x4-4-5-|-x4-4-4-4-4-4-4-4-|-x4-4-4-4-4p2----------|
A|-xx-x-x-x-x-x-x-x-|-xx-x-x-x-xx-x-x-xx-x-x-|-xx-x-x-x-x-x-x-x-|-xx-x-x-x----4p2-0-2-0-|
E|-x2-2-2-2-2-2-2-2-|-x2-2-2-2-x2-2-3-x2-2-3-|-x2-2-2-2-2-2-2-2-|-x2-2-2-2--------------|

VERSE 1:
e|-----------------|-----------------|-----------------|-----------------------|
B|-----------------|-----------------|-----------------|-----------------------|
G|-----------------|-----------------|-----------------|-----------------------|
D|-----------------|-----------------|-----------------|---------4p2-----------|
A|-----------------|-----------------|-----------------|-------------4p2-0-2-0-|
E|-2-2-2-2-2-2-2-2-|-2-2-2-2-2-2-2-2-|-2-2-2-2-2-2-2-2-|-2-2-2-2---------------|
   P.M._________________________________________________________|

e|-----------------|-----------------|-----------------|-----------------|
B|-----------------|-----------------|-----------------|-----------------|
G|-----------------|-----------------|-----------------|-----------------|
D|-----------------|-----------------|-----------------|-----------------|
A|-----------------|-----------------|-4-5-4-5-4-5-4-5-|-4-5-4-5-4-5-4-5-|
E|-2-2-2-2-2-2-2-2-|-2-2-2-2-2-2-2-2-|-2-3-2-3-2-3-2-3-|-2-3-2-3-2-3-2-3-|
   P.M._____________________________|

CHORUS:
e|---------------------|-----------------|
B|---------------------|-----------------|
G|---------------------|-----------------|
D|-9-9-9-9-9-9-x/10-10-|-9-9-9-9-5-5-5-5-|
A|-9-9-9-9-9-9-x/10-10-|-9-9-9-9-5-5-5-5-|
E|-7-7-7-7-7-7-x/-8--8-|-7-7-7-7-3-3-3-3-|

POST CHORUS VERSE THING:
e|-------------------|-----------------------|-----------------|------------------------|
B|-------------------|-----------------------|-----------------|------------------------|
G|-------------------|-----------------------|-----------------|------------------------|
D|-------------------|-----------------------|-----------------|-----------4p2----------|
A|-------------------|---------x4-4-5-x4-4-5-|-----------------|--------------4p2-0-2-0-|
E|-2-2-2-2-2-2-2-2p0-|-2-2-2-2-x2-2-3-x2-2-3-|-2-2-2-2-2-2-2-2-|-x2-2-2-2---------------|

VERSE 2:
e|---------------------|-----------------|-------------------|-----------------------|
B|---------------------|-----------------|-------------------|-----------------------|
G|---------------------|-----------------|-------------------|-----------------------|
D|---------------------|-----------------|-------------------|---------4p2-----------|
A|---------------------|-----------------|-------------------|-------------4p2-0-2-0-|
E|-2-2-2-2-2-2-2p0-2p0-|-2-2-2-2-2-2-2-2-|-2-2-2-2-2-2-2-2p0-|-2-2-2-2---------------|
   P.M._______________________________________________________________|

e|-----------------|-----------------|-----------------|-----------------|
B|-----------------|-----------------|-----------------|-----------------|
G|-----------------|-----------------|-----------------|-----------------|
D|-----------------|-----------------|-----------------|-----------------|
A|-----------------|-----------------|-4-5-4-5-4-5-4-5-|-4-5-4-5-4-5-4-5-|
E|-2-2-2-2-2-2-2-2-|-2-2-2-2-2-2-2-2-|-2-3-2-3-2-3-2-3-|-2-3-2-3-2-3-2-3-|
   P.M._____________________________|

CHORUS:
e|---------------------|------------------|
B|---------------------|------------------|
G|---------------------|------------------|
D|-9-9-9-9-9-9-x/10-10-|-9-9-9-9-x5-5-5-5-| x2
A|-9-9-9-9-9-9-x/10-10-|-9-9-9-9-x5-5-5-5-|
E|-7-7-7-7-7-7-x/-8--8-|-7-7-7-7-x3-3-3-3-|

THIS BIT:
e|----------------------|----------------------|----------------------------|----------------------------|
B|----------------------|----------------------|----------------------------|----------------------------|
G|----------------------|----------------------|----------------------------|----------------------------|
D|-4-x-x4-x-x4-x-x5-5-5-|-4-x-x4-x-x4-x-x5-5-5-|-16-x-x16-x-x16-x-x15-15-15-|-16-x-x16-x-x16-x-x15-15-15-|
A|-x-x-xx-x-xx-x-xx-x-x-|-x-x-xx-x-xx-x-xx-x-x-|--x-x-x-x-x-x-x-x-x-x--x--x-|--x-x-x-x-x-x-x-x-x-x--x--x-|
E|-2-x-x2-x-x2-x-x3-3-3-|-2-x-x2-x-x2-x-x3-3-3-|-14-x-x14-x-x14-x-x13-13-13-|-14-x-x14-x-x14-x-x13-13-13-|

e|----------------------|----------------------|----------------------------|----------------------------|
B|----------------------|----------------------|----------------------------|----------------------------|
G|----------------------|----------------------|----------------------------|----------------------------|
D|-4-x-x4-x-x4-x-x5-5-5-|-4-x-x4-x-x4-x-x5-5-5-|-16-x-x16-x-x16-x-x15-15-15-|-16-x-x16-x-x16-x-x15-15-15-|
A|-x-x-xx-x-xx-x-xx-x-x-|-x-x-xx-x-xx-x-xx-x-x-|--x-x-x-x-x-x-x-x-x-x--x--x-|--x-x-x-x-x-x-x-x-x-x--x--x-|
E|-2-x-x2-x-x2-x-x3-3-3-|-2-x-x2-x-x2-x-x3-3-3-|-14-x-x14-x-x14-x-x13-13-13-|-14-x-x14-x-x14-x-x13-13-13-|

THIS OTHER BIT:
e|------------|------------|------------|------------|----------------|----------------|
B|------------|------------|------------|------------|----------------|----------------|
G|------------|------------|------------|------------|----------------|----------------|
D|------------|-----/15.---|------------|-----/15.---|---------/15.---|---------/15.---|
A|------------|--2--/14.---|------------|--2--/14.---|-----2---/14.---|-----2---/14.---|
E|-2------3-2-|3-----------|-2------3-2-|3-----------|-2-3---3--------|-2-3---3--------|

e|----------------|----------------|-------------|
B|----------------|----------------|-------------|
G|----------------|----------------|-------------|
D|---------/15.---|---------/15.---|-------------|
A|-----2---/14.---|-----2---/14.---|-------------|
E|-2-3---3--------|-2-3---3--------|-2----/14--2-|

AND AGAIN:
e|-------------------|-----------------------|-------------------|------------------------|
B|-------------------|-----------------------|-------------------|------------------------|
G|-------------------|-----------------------|-------------------|------------------------|
D|-------------------|-----------------------|-------------------|-----------4p2----------|
A|-------------------|---------x4-4-5-x4-4-5-|-------------------|--------------4p2-0-2-0-|
E|-2-2-2-2-2-2-2-2p0-|-2-2-2-2-x2-2-3-x2-2-3-|-2-2-2-2-2-2-2-2p0-|-x2-2-2-2---------------|
   P.M._______________________|                P.M.________________________|

VERSE 3:
e|---------------------|-------------------|-------------------|-----------------------|
B|---------------------|-------------------|-------------------|-----------------------|
G|---------------------|-------------------|-------------------|-----------------------|
D|---------------------|-------------------|-------------------|---------4p2-----------|
A|---------------------|-------------------|-------------------|-------------4p2-0-2-0-|
E|-2-2-2-2-2-2-2p0-2p0-|-2-2-2-2-2-2-2-2p0-|-2-2-2-2-2-2-2-2p0-|-2-2-2-2---------------|
   P.M._________________________________________________________________|

e|------------------|-----------------|-----------------|-----------------|
B|------------------|-----------------|-----------------|-----------------|
G|------------------|-----------------|-----------------|-----------------|
D|------------------|-----------------|-----------------|-----------------|
A|------------------|-----------------|-4-5-4-5-4-5-4-5-|-4-5-4-5-4-5-4-5-|
E|-2-2-2-2-2-2-2-2p0|-2-2-2-2-2-2-2-2-|-2-3-2-3-2-3-2-3-|-2-3-2-3-2-3-2-3-|
   P.M.______________________________|

CHORUS:
e|---------------------|------------------|
B|---------------------|------------------|
G|---------------------|------------------|
D|-9-9-9-9-9-9-x/10-10-|-9-9-9-9-x5-5-5-5-| x2
A|-9-9-9-9-9-9-x/10-10-|-9-9-9-9-x5-5-5-5-|
E|-7-7-7-7-7-7-x/-8--8-|-7-7-7-7-x3-3-3-3-|

THIS BIT AGAIN:
e|----------------------|----------------------|----------------------------|----------------------------|
B|----------------------|----------------------|----------------------------|----------------------------|
G|----------------------|----------------------|----------------------------|----------------------------|
D|-4-x-x4-x-x4-x-x5-5-5-|-4-x-x4-x-x4-x-x5-5-5-|-16-x-x16-x-x16-x-x15-15-15-|-16-x-x16-x-x16-x-x15-15-15-|
A|-x-x-xx-x-xx-x-xx-x-x-|-x-x-xx-x-xx-x-xx-x-x-|--x-x-x-x-x-x-x-x-x-x--x--x-|--x-x-x-x-x-x-x-x-x-x--x--x-|
E|-2-x-x2-x-x2-x-x3-3-3-|-2-x-x2-x-x2-x-x3-3-3-|-14-x-x14-x-x14-x-x13-13-13-|-14-x-x14-x-x14-x-x13-13-13-|

e|----------------------|----------------------|----------------------------|----------------------------|
B|----------------------|----------------------|----------------------------|----------------------------|
G|----------------------|----------------------|----------------------------|----------------------------|
D|-4-x-x4-x-x4-x-x5-5-5-|-4-x-x4-x-x4-x-x5-5-5-|-16-x-x16-x-x16-x-x15-15-15-|-16-x-x16-x-x16-x-x15-15-15-|
A|-x-x-xx-x-xx-x-xx-x-x-|-x-x-xx-x-xx-x-xx-x-x-|--x-x-x-x-x-x-x-x-x-x--x--x-|--x-x-x-x-x-x-x-x-x-x--x--x-|
E|-2-x-x2-x-x2-x-x3-3-3-|-2-x-x2-x-x2-x-x3-3-3-|-14-x-x14-x-x14-x-x13-13-13-|-14-x-x14-x-x14-x-x13-13-13-|

A NEW BIT?:
e|----------------------|----------------------|----------------------|----------------------|
B|----------------------|----------------------|----------------------|----------------------|
G|----------------------|----------------------|----------------------|----------------------| x2
D|----------------------|----------------------|-4-x-x4-x-x4-x-x3-3-3-|-4-x-x4-x-x4-x-x3-3-3-|
A|----------------------|----------------------|----------------------|----------------------|
E|-2-x-x2-x-x2-x-x3-3-3-|-2-x-x2-x-x2-x-x3-3-3-|----------------------|----------------------|

UR ON A BEAUTY QUEST:
e|----------------------|----------------------|----------------------------|----------------------------|
B|----------------------|----------------------|----------------------------|----------------------------|
G|----------------------|----------------------|----------------------------|----------------------------|
D|-4-x-x4-x-x4-x-x5-5-5-|-4-x-x4-x-x4-x-x5-5-5-|-16-x-x16-x-x16-x-x15-15-15-|-16-x-x16-x-x16-x-x15-15-15-|
A|-x-x-xx-x-xx-x-xx-x-x-|-x-x-xx-x-xx-x-xx-x-x-|--x-x-x-x-x-x-x-x-x-x--x--x-|--x-x-x-x-x-x-x-x-x-x--x--x-|
E|-2-x-x2-x-x2-x-x3-3-3-|-2-x-x2-x-x2-x-x3-3-3-|-14-x-x14-x-x14-x-x13-13-13-|-14-x-x14-x-x14-x-x13-13-13-|

e|----------------------|----------------------|----------------------------|-----------------|
B|----------------------|----------------------|----------------------------|-----------------|
G|----------------------|----------------------|----------------------------|-----------------|
D|-4-x-x4-x-x4-x-x5-5-5-|-4-x-x4-x-x4-x-x5-5-5-|-16-x-x16-x-x16-x-x15-15-15-|-16----------16\-|
A|-x-x-xx-x-xx-x-xx-x-x-|-x-x-xx-x-xx-x-xx-x-x-|--x-x-x-x-x-x-x-x-x-x--x--x-|--x-----------x\-|
E|-2-x-x2-x-x2-x-x3-3-3-|-2-x-x2-x-x2-x-x3-3-3-|-14-x-x14-x-x14-x-x13-13-13-|-14----------14\-|



************************************

| /   slide up
| \   slide down
| h   hammer-on
| p   pull-off
| ~   vibrato
| +   harmonic
| x   Mute note
| b   Bend
| pb  Pre-bend
| br  Bend release
| pbr Pre-bend release
| brb Bend release bend

************************************
Добавлено: 27.04.2016
Другие материалы по этой песне:
  • Аккорды и текст

Страница создана 27.04.2016
http://primanota.ru/slaves/beauty-quest-chords.htm
Привет, Гость.
Предлагаем пройти революционный курс по гитаре.
Подарок от PrimaNota.Ru, забирай!