PrimaNota.ru - самый крупный в мире бесплатный архив песенных текстов, аккордов, табулатур и нот


Slaves - Cheer Up London - таба, бас-таба, видео

Регистрация Запомнить меня
Войти через:  Facebook Google Twitter Vk Yandex Mail.ru

Slaves - Cheer Up London - таба, бас-таба, видео

Печатать
Просмотров: 384
Tabbed by: Modnarandom

Tuning: Standard

This song is just a variation upon these two riffs, listen for the rhythm and the timing

Please comment any corrections below

Main Riff

e|----------------------------------------------------------------|
B|----------------------------------------------------------------|
G|----------------------------------------------------------------|
D|--------6-6--------666-4-4--------6-6-------666-4-4-------------|
A|--0-4--------0-4--------------0-4-----0-4-----------------------|
E|----------------------------------------------------------------|

e|---------------------------------------------------xxx-xx-------|
B|---------------------------------------------------xxx-xx-------|
G|---------------------------------------------------xxx-xx-------|
D|--------6-6--------666-4-4--------6-6--------------xxx-xx-------|
A|--0-4--------0-4--------------0-4-----0-4----------xxx-xx-------|
E|---------------------------------------------------xxx-xx-------|

Alternate Riff

e|----------------------------------------------------------------|
B|----------------------------------------------------------------|
G|----------------------------------------------------4-----------|
D|--------6-6--------666-4-4----------6-6---4--4----6---6---------|
A|--0-4--------0-4--------------0-4---------------6---------------|
E|----------------------------------------------------------------|

e|---------------------------------------------------xxx-xx-------|
B|---------------------------------------------------xxx-xx-------|
G|---------------------------------------------------xxx-xx-------|
D|--------6-6--------666-4-4--------6-6--------------xxx-xx-------|
A|--0-4--------0-4--------------0-4-----0-4----------xxx-xx-------|
E|---------------------------------------------------xxx-xx-------|


************************************

| /   slide up
| \   slide down
| h   hammer-on
| p   pull-off
| ~   let ring
| +   harmonic
| x   Mute note
| b   Bend
| pb  Pre-bend
| br  Bend release
| pbr Pre-bend release
| brb Bend release bend

************************************
Добавлено: 27.04.2016
Другие материалы по этой песне:
  • Аккорды и текст

Страница создана 30.10.2015
http://primanota.ru/slaves/cheer-up-london-chords.htm
Привет, Гость.
Предлагаем пройти революционный курс по гитаре.
Подарок от PrimaNota.Ru, забирай!