PrimaNota.ru - самый крупный в мире бесплатный архив песенных текстов, аккордов, табулатур и нот


Slaves - Hey - таба, видео

Регистрация Запомнить меня
Войти через:  Facebook Google Twitter Vk Yandex Mail.ru

Slaves - Hey - таба, видео

Печатать
Просмотров: 484
Уроки эстрадного вокала в Санкт-Петербурге
-------------------------------------------------------------------------------
                             Hey - Slaves
-------------------------------------------------------------------------------
Tabbed by: steve
E-mail:

Tuning: standard

Intro:

e|---------------------------------------------------------------------------|
B|---------------------------------------------------------------------------|
G|---------------------------------------------------------------------------|
D|---------------------------------------------------------------------------|
A|---------66----------------------------------------------------------------|
E|55-88-55----55-8-55--8-7-6-------------------------------------------------|

drums come in:

e|-----------------------------------------------------------------------------|
B|-----------------------------------------------------------------------------|
G|-----------------------------------------------------------------------------|
D|---------88------------------------------------------------------------------|
A|77-99-77-66-77-9-7--10-9-8---------------------------------------------------|
E|55-77-55----55-7-5--8--7-6---------------------------------------------------|


e|---------------------------------------------------------------------------|
B|---------------------------------------------------------------------------|
G|---------------------------------------------------------------------------|
D|---------------------------------------------------------------------------|
A|--------66-----------------------------------------------------------------|
E|55-88-55----55-8-55--8-7-6-------------------------------------------------|
                    ^
         (sometimes extra 5 isn't played in this verse)


bridge

e|------------------------------------------------------------------------------|
B|------------------------------------------------------------------------------|
G|------------------------------------------------------------------------------|
D|------------------------------------------------------------------------------|
A|6666666666666666/5555555555555555/--------------------------------------------|x8
E|4444444444444444/3333333333333333/--------------------------------------------|

e|---------------------------------------------------------------------------|
B|---------------------------------------------------------------------------|
G|---------------------------------------------------------------------------|
D|---------------------------------------------------------------------------|
A|--------66-----------------------------------------------------------------|x2
E|55-88-55----55-8-55--8-7-6-------------------------------------------------|

e|---------------------------------------------------------------------------|
B|---------------------------------------------------------------------------|
G|---------------------------------------------------------------------------|
D|---------88----------------------------------------------------------------|play till end
A|77-99-77-66-77-9-7--10-9-8-------------------------------------------------|
E|55-77-55----55-7-5--8--7-6-------------------------------------------------|

************************************
i think the bridge is correct, and I'm not sure if its power chords after the bridge or not.

probably not 100% correct, but its my first tab too, great band though, great riffs in every song


************************************

| /   slide up
| \   slide down
| h   hammer-on
| p   pull-off
| ~   vibrato
| +   harmonic
| x   Mute note
| b   Bend
| pb  Pre-bend
| br  Bend release
| pbr Pre-bend release
| brb Bend release bend

************************************
Добавлено: 25.07.2015
Другие материалы по этой песне:

Страница создана 25.07.2015
http://primanota.ru/slaves/hey-chords.htm
Привет, Гость.
Предлагаем пройти революционный курс по гитаре.
Подарок от PrimaNota.Ru, забирай!