PrimaNota.ru - самый крупный в мире бесплатный архив песенных текстов, аккордов, табулатур и нот


Royal Republic - Sailing Man - таба, видео

Регистрация Запомнить меня
Войти через:  Facebook Google Twitter Vk Yandex Mail.ru

Royal Republic - Sailing Man - таба, видео

Печатать
Просмотров: 316
hey, this is my tab of sailing man by royal republic. it may not be 100% accurate, but
you get along pretty well.
if you have questions or other comments, feel free to write me: sven-wendt@hotmail.de.
or, if you don't mind, check out my cover of the song on 
http://www.youtube.com/watch?v=i_ghpgDiVng&feature=plcp.

the tab is -1 step, just because some royal republic songs need this tuning. you can
also play it in standard tuning, just 1 step lower.

intro:

eb |---------------------------------|---------------------------------|
hb |---------------------------------|---------------------------------|
gb |---------------------------------|---------------------------------|
db |---------------------------------|-5-----------5---4---4-----------|
ab |---------------------------6-7-9-|-----6-------------------7-------|
eb |-9---9---9---9-8-9---9-8-9-------|---------6-------------------8---|


eb |---------------------------------|---------------------------------|
hb |---------------------------------|---------------------------------|
gb |---------------------------------|---------------------------------|
db |---------------------------------|-5-----------5---6---6-----------|
ab |---------------------------6-7-9-|-----6-------------------9-------|
eb |-9---9---9---9-8-9---9-8-9-------|---------6-------------------8---|



verse:

eb |---------------------------------|
hb |---------------------------------|
gb |-----6-6-----6-6-----6-6-----6-6-|
db |-----x-x-----x-x-----x-x-----x-x-|
ab |-----4-4-----4-4-----4-4-----4-4-|
eb |---------------------------------|


eb |---------------------------------|---------------------------------|
hb |---------------------------------|---------------------------------|
gb |-----6-6-----6-6-----6-6-----6-6-|-----9-9-----9-9-----8-8-----8-8-|
db |-----x-x-----x-x-----x-x-----x-x-|-----x-x-----x-x-----x-x-----x-x-|
ab |-----4-4-----4-4-----4-4-----4-4-|-----7-7-----7-7-----6-6-----6-6-|
eb |---------------------------------|---------------------------------|


eb |---------------------------------|---------------------------------|
hb |---------------------------------|---------------------------------|
gb |-----6-6-----6-6-----6-6-----6-6-|-----1212----1212----13--1311----|
db |-----x-x-----x-x-----x-x-----x-x-|-----x-x-----x-x-----x-------1413|
ab |-----4-4-----4-4-----4-4-----4-4-|-----1010----1010----11----------|
eb |---------------------------------|---------------------------------|  x2


eb |-9---------------9---------------|---------------------------------|
hb |---------9---------------9-------|-9---------------8---------------|
gb |---------------------------------|---------9---------------8-------|
db |---------------------------------|---------------------------------|
ab |---------------------------------|---------------------------------|
eb |---------------------------------|---------------------------------|


eb |-9---------------9---------------|---------------------------------|
hb |---------9---------------9-------|-8---------------9---------------|
gb |---------------------------------|---------8-----------------------|
db |---------------------------------|---------------------------------|
ab |---------------------------------|---------------------------------|
eb |---------------------------------|---------------------------------|



chorus:

eb |---------------------------------|---------------------------------|
hb |---------------------------------|---------------------------------|
gb |-6---6---6---6---6---6---6---6---|-8---8---8---8---7---7---7---7---|
db |-6---6---6---6---6---6---6---6---|-8---8---8---8---7---7---7---7---|
ab |-4---4---4---4---4---4---4---4---|-6---6---6---6---5---5---5---5---|
eb |---------------------------------|---------------------------------|


eb |---------------------------------|---------------------------------|
hb |---------------------------------|---------------------------------|
gb |-6---6---6---6---6---6---6---6---|-9---9---9---9---9---9---9---9---|
db |-6---6---6---6---6---6---6---6---|-9---9---9---9---9---9---9---9---|
ab |-4---4---4---4---4---4---4---4---|-7---7---7---7---7---7---7---7---|
eb |---------------------------------|---------------------------------|


eb |---------------------------------|---------------------------------|
hb |---------------------------------|---------------------------------|
gb |-6---6---6---6---6---6---6---6---|-8---8---8---8---7---7---7---7---|
db |-6---6---6---6---6---6---6---6---|-8---8---8---8---7---7---7---7---|
ab |-4---4---4---4---4---4---4---4---|-6---6---6---6---5---5---5---5---|
eb |---------------------------------|---------------------------------|


eb |---------------------------------|---------------------------------|
hb |---------------------------------|---------------------------------|
gb |-6---6---6---6---6---6---6---6---|-10--10--10--10--11--11--11--11--|
db |-6---6---6---6---6---6---6---6---|-10--10--10--10--11--11--11--11--|
ab |-4---4---4---4---4---4---4---4---|-8---8---8---8---9---9---9---9---|
eb |---------------------------------|---------------------------------|



verse:

eb |---------------------------------|---------------------------------|
hb |---------------------------------|---------------------------------|
gb |-----6-6-----6-6-----6-6-----6-6-|-----9-9-----9-9-----8-8-----8-8-|
db |-----x-x-----x-x-----x-x-----x-x-|-----x-x-----x-x-----x-x-----x-x-|
ab |-----4-4-----4-4-----4-4-----4-4-|-----7-7-----7-7-----6-6-----6-6-|
eb |---------------------------------|---------------------------------|


eb |---------------------------------|---------------------------------|
hb |---------------------------------|---------------------------------|
gb |-----6-6-----6-6-----6-6-----6-6-|-----1212----1212----13--1311----|
db |-----x-x-----x-x-----x-x-----x-x-|-----x-x-----x-x-----x-------1413|
ab |-----4-4-----4-4-----4-4-----4-4-|-----1010----1010----11----------|
eb |---------------------------------|---------------------------------|  x2


eb |-9---------------9---------------|---------------------------------|
hb |---------9---------------9-------|-9---------------8---------------|
gb |---------------------------------|---------9---------------8-------|
db |---------------------------------|---------------------------------|
ab |---------------------------------|---------------------------------|
eb |---------------------------------|---------------------------------|


eb |-9---------------9---------------|---------------------------------|
hb |---------9---------------9-------|-8---------------9---------------|
gb |---------------------------------|---------8-----------------------|
db |---------------------------------|---------------------------------|
ab |---------------------------------|---------------------------------|
eb |---------------------------------|---------------------------------|



chorus:

eb |---------------------------------|---------------------------------|
hb |---------------------------------|---------------------------------|
gb |-6---6---6---6---6---6---6---6---|-8---8---8---8---7---7---7---7---|
db |-6---6---6---6---6---6---6---6---|-8---8---8---8---7---7---7---7---|
ab |-4---4---4---4---4---4---4---4---|-6---6---6---6---5---5---5---5---|
eb |---------------------------------|---------------------------------|


eb |---------------------------------|---------------------------------|
hb |---------------------------------|---------------------------------|
gb |-6---6---6---6---6---6---6---6---|-9---9---9---9---9---9---9---9---|
db |-6---6---6---6---6---6---6---6---|-9---9---9---9---9---9---9---9---|
ab |-4---4---4---4---4---4---4---4---|-7---7---7---7---7---7---7---7---|
eb |---------------------------------|---------------------------------|


eb |---------------------------------|---------------------------------|
hb |---------------------------------|---------------------------------|
gb |-6---6---6---6---6---6---6---6---|-8---8---8---8---7---7---7---7---|
db |-6---6---6---6---6---6---6---6---|-8---8---8---8---7---7---7---7---|
ab |-4---4---4---4---4---4---4---4---|-6---6---6---6---5---5---5---5---|
eb |---------------------------------|---------------------------------|


eb |---------------------------------|---------------------------------|
hb |---------------------------------|---------------------------------|
gb |-6---6---6---6---6---6---6---6---|-10--10--10--10--11--11--11--11--|
db |-6---6---6---6---6---6---6---6---|-10--10--10--10--11--11--11--11--|
ab |-4---4---4---4---4---4---4---4---|-8---8---8---8---9---9---9---9---|
eb |---------------------------------|---------------------------------|



interlude: (very aweseome 12-tone music btw)

eb |---------------------------------|---------------------------------|
hb |---------------------------------|---------------------------------|
gb |-------------6---5---------------|---------------------------------|
db |---------------------9---8-------|-7-------7---6---5---------------|
ab |-4---6---7-------------------7---|-----7-------------------6-------|
eb |---------------------------------|---------------------------------|

eb |---------------------------------|---------------------------------|
hb |-----------------------------7---|-8-------7---8---9---------------|
gb |-------------6---5-------9-------|-----8---------------------------|
db |---------------------6-----------|---------------------------------|
ab |-4---6---7-----------------------|---------------------------------|
eb |---------------------------------|---------------------------------|  x2



bridge:

eb |---------------------------------|---------------------------------|
hb |---------------------------------|---------------------------------|
gb |---------6---------------6-------|---------9---------------8-------|
db |---------6---------------6-------|---------9---------------8-------|
ab |---------4---------------4-------|---------7---------------6-------|
eb |---------------------------------|---------------------------------|


eb |---------------------------------|---------------------------------|
hb |---------------------------------|---------------------------------|
gb |---------6---------------6-------|---------9-------13--------------|
db |---------6---------------6-------|---------9-------13--------------|
ab |---------4---------------4-------|---------7-------11--------------|
eb |---------------------------------|---------------------------------|



chorus:

eb |---------------------------------|---------------------------------|
hb |---------------------------------|---------------------------------|
gb |-6---6---6---6---6---6---6---6---|-8---8---8---8---7---7---7---7---|
db |-6---6---6---6---6---6---6---6---|-8---8---8---8---7---7---7---7---|
ab |-4---4---4---4---4---4---4---4---|-6---6---6---6---5---5---5---5---|
eb |---------------------------------|---------------------------------|


eb |---------------------------------|---------------------------------|
hb |---------------------------------|---------------------------------|
gb |-6---6---6---6---6---6---6---6---|-9---9---9---9---9---9---9---9---|
db |-6---6---6---6---6---6---6---6---|-9---9---9---9---9---9---9---9---|
ab |-4---4---4---4---4---4---4---4---|-7---7---7---7---7---7---7---7---|
eb |---------------------------------|---------------------------------|


eb |---------------------------------|---------------------------------|
hb |---------------------------------|---------------------------------|
gb |-6---6---6---6---6---6---6---6---|-8---8---8---8---7---7---7---7---|
db |-6---6---6---6---6---6---6---6---|-8---8---8---8---7---7---7---7---|
ab |-4---4---4---4---4---4---4---4---|-6---6---6---6---5---5---5---5---|
eb |---------------------------------|---------------------------------|


eb |---------------------------------|---------------------------------|
hb |---------------------------------|---------------------------------|
gb |-6---6---6---6---6---6---6---6---|-10--10--10--10--11--11--11--11--|
db |-6---6---6---6---6---6---6---6---|-10--10--10--10--11--11--11--11--|
ab |-4---4---4---4---4---4---4---4---|-8---8---8---8---9---9---9---9---|
eb |---------------------------------|---------------------------------|


eb |---------------------------------|---------------------------------||
hb |---------------------------------|---------------------------------||
gb |-11--11--11--11--11--11--11--11--|-6-------------------------------||
db |-11--11--11--11--11--11--11--11--|-6-------------------------------||
ab |-9---9---9---9---9---9---9---9---|-4-------------------------------||
eb |---------------------------------|---------------------------------||
Добавлено: 08.06.2013
Другие материалы по этой песне:

Страница создана 08.06.2013
http://primanota.ru/royal-republic/sailing-man-chords.htm
Привет, Гость.
Предлагаем пройти революционный курс по гитаре.
Подарок от PrimaNota.Ru, забирай!