PrimaNota.ru - самый крупный в мире бесплатный архив песенных текстов, аккордов, табулатур и нот


Royal Republic - The End - таба, видео

Регистрация Запомнить меня
Войти через:  Facebook Google Twitter Vk Yandex Mail.ru

Royal Republic - The End - таба, видео

Печатать
Просмотров: 173
And yet, another Royal Republic song I found out :)
#Intro

Guitar 1:
e|-------------------------------------------------------|
B|-------------------------------------------------------|
G|---6-6-6-6-6-6-6---------------------------------------|
D|---6-6-6-6-6-6-6---------------------------------------|
A|---4-4-4-4-4-4-4---------------------------------------|
E|-------------------------------------------------------|

Guitar 2:
e|-------------------------------------------------------|
B|-------------------------------------------------------|
G|--------------------------9-9-9-9-9-9-9----------------|
D|--------------------------9-9-9-7-7-7-9----------------|
A|--------------------------7-7-7-7-7-7-7----------------|
E|-------------------------------------------------------|

#Fill / Pre-Chorus1

e|-------------------------------------------------------|
B|--8-8-8-8-8-8-8-8-8-8-8--11-11-11-11-11-11-11-11-------|
G|--8-8-8-8-8-8-8-8-8-8-8--11-11-11-11-11-11-11-11-------|
D|--8-8-8-8-8-8-8-8-8-8-8--11-11-11-11-11-11-11-11-------|
A|--6-6-6-6-6-6-6-6-6-6-6--9--9--9--9--9--9--9--9--------|
E|-------------------------------------------------------|

#Intro
#Pre-Chorus1

#Pre-Chorus2
e|-------------------------------------------------------|
B|---------------------------0.--------------------------|
G|---------------------------0.--------------------------|
D|----------------------2----0.--------------------------| x3
A|--------2----2-3-4------4--0.--------------------------|
E|--2-3-4----4-------4-----------------------------------|

#Chorus
e|-------------------------------------------------------|
B|-------------------------------------------------------|
G|-13-13-13-13-13-13-13-13-12-12-12-12-12----------------|
D|-13-13-13-13-13-13-13-13-12-12-12-12-12----------------|
A|-11-11-11-11-11-11-11-11-10-10-10-10-10----------------|
E|-------------------------------------------------------|

e|-------------------------------------------------------|
B|-------------------------------------------------------|
G|--10-10-10-10-9-9-9-9-8-8-8-8-7-7-7-7------------------|
D|--10-10-10-10-9-9-9-9-8-8-8-8-7-7-7-7-->#Intro---------|
A|--8--8--8--8--7-7-7-7-6-6-6-6-5-5-5-5------------------|
E|-------------------------------------------------------|

REPEAT ALL THIS ANOTHER TIME

#Breakdown Riff 1

Guitar 1:
e|-------------------------------------------------------|
B|-------------------------------------------------------|
G|-------------------------------------------------------|
D|---6-6-6-6-6-6-6-------9-9-9-7-7-7-9-------------------|
A|---4-4-4-4-4-4-4-------7-7-7-7-7-7-7-------------------|
E|-------------------------------------------------------|
  PM . . . . . . .       . . . . . . .                        

#Breakdown 2:
e|-------------------------------------------------------|
B|-------------------------------------------------------|
G|-12~--~----------------------11~--~--------------------|
D|-12~--~----------------------11~--~--------------------|
A|-10-10-10-10-10-10-10-10-10--13-13-13-13-13-13-13-13---|
E|-------------------------------------------------------|          

Repeat #Pre-Chorus2

Done!
Добавлено: 20.08.2013
Другие материалы по этой песне:

Страница создана 07.08.2013
http://primanota.ru/royal-republic/the-end-chords.htm
Привет, Гость.
Предлагаем пройти революционный курс по гитаре.
Подарок от PrimaNota.Ru, забирай!