PrimaNota.ru - самый крупный в мире бесплатный архив песенных текстов, аккордов, табулатур и нот


Royal Republic - When I See You Dance With Another - таба, видео

Регистрация Запомнить меня
Войти через:  Facebook Google Twitter Vk Yandex Mail.ru

Royal Republic - When I See You Dance With Another - таба, видео

Печатать
Просмотров: 100
-------------------------------------------------------------------------------
              WHEN I SEE YOU DANCE WITH ANOTHER - Royal Republic               
-------------------------------------------------------------------------------

When I See You Dance With Another
Royal Republic
From the album: Weekend Man (2016)
Tabbed by egg-marteeni
30 December 2015

Tuning: Standard

INTRO

AAAAAAAAAAGGGGHHHHHHHH!  YEAH!

e|-3---3-3---3-3---6-----6-6-6--|
B|-3---3-3---3-3---6-----6-6-6--|
G|-4---4-4---4-4---7-----7-7-7--|
D|-5---5-5---5-5---8-----8-8-8--|
A|-5---5-5---5-5---8-----8-8-8--|
E|-3---3-3---3-3---6-----6-6-6--| x4
   G               A#

VERSE 1

  When I see you dance with another
  When I see you dance with another
  I can't bring myself not to bother
  When I see you dance with another

e|----------------------------------|
B|----------------------------------|
G|-0---0-0-0---2---3-------3-2-1----|
D|----------------------------------|
A|----------------------------------|
E|----------------------------------| x4

  When I see you talk to another
  When I see you talk to another
  I got no choice but to go undercover
  When I see you dance with another

e|----------------------------------|
B|----------------------------------|
G|----------------------------------|
D|----------------------------------|
A|----------------------------------|
E|-0---5-0-5---3---0-------3-4-5----| x4

(A second guitar can be used to play the intro chords over this)

PRE-CHORUS 1

  Hoo! Ha! Hoo!

e|-5-5-5-5-5-5-5-5-5-5-5-5-5-5-5-5-5-5-5-5-5-5-5-8---|
B|-7-7-7-7-7-7-7-7-7-7-7-7-7-7-7-7-7-7-7-7-7-7-7-10--|
G|-7-7-7-7-7-7-7-7-7-7-7-7-7-7-7-7-7-7-7-7-7-7-7-10--|
D|-7-7-7-7-7-7-7-7-7-7-7-7-7-7-7-7-7-7-7-7-7-7-7-10--|
A|-5-5-5-5-5-5-5-5-5-5-5-5-5-5-5-5-5-5-5-5-5-5-5-8---|
E|---------------------------------------------------| x1
   D                                             F

CHORUS

  I can't get you off of my mind
  I can't get you off of my mind
  Girl I know your love is unkind

e|-3---3-3---3-3---6-----6-6-6--|
B|-3---3-3---3-3---6-----6-6-6--|
G|-4---4-4---4-4---7-----7-7-7--|
D|-5---5-5---5-5---8-----8-8-8--|
A|-5---5-5---5-5---8-----8-8-8--|
E|-3---3-3---3-3---6-----6-6-6--| x3
   G               A#

  I can't get you off of my my my mind

e|-3---3-3---3-3---3-------3-------3-------3--|
B|-3---3-3---3-3---5-------5-------5-------3--|
G|-4---4-4---4-4---5-------5-------5-------4--|
D|-5---5-5---5-5---5-------5-------5-------5--|
A|-5---5-5---5-5---3-------3-------3-------5--|
E|-3---3-3---3-3---------------------------3--| x1
   G               C                       G

SOLO 1

e|------------------------------|
B|------------------------------|
G|-5-4-3-5--4-3-5--4-3-5-4-3----|
D|---------------------------5--|
A|------------------------------|
E|------------------------------| x4

VERSE 1

  When I see you dance with another

e|---------------------------|
B|---------------------------|
G|---------------------------|
D|---------------------------|
A|---------------------------|
E|---------------------------|

  When you put your hands on another
  I can't bring myself not to bother
  When I see you dance with another

  When I see you walk with another
  When I see you talk to another
  I got no choice but to go undercover
  When I see you dance with another

e|----------------------------------|
B|----------------------------------|
G|-0---0-0-0---2---3-------3-2-1----|
D|----------------------------------|
A|----------------------------------|
E|----------------------------------| x7

(Once again, a second guitar can be used to play the intro chords)

PRE-CHORUS 2

e|-5-5-5-5-5-5-5-5-5-5-5-5-5-5-5-5-|
B|-7-7-7-7-7-7-7-7-7-7-7-7-7-7-7-7-|
G|-7-7-7-7-7-7-7-7-7-7-7-7-7-7-7-7-|
D|-7-7-7-7-7-7-7-7-7-7-7-7-7-7-7-7-|
A|-5-5-5-5-5-5-5-5-5-5-5-5-5-5-5-5-|
E|---------------------------------|

CHORUS

  I can't get you off of my mind
  I can't get you off of my mind
  Girl I know your love is unkind

e|-3---3-3---3-3---6-----6-6-6-------|
B|-3---3-3---3-3---6-----6-6-6-------|
G|-4---4-4---4-4---7-----7-7-7-------|
D|-5---5-5---5-5---8-----8-8-8-------|
A|-5---5-5---5-5---8-----8-8-8-------|
E|-3---3-3---3-3---6-----6-6-6-------| x3
   G               A#

  I can't get you off of my my my mind


e|-3---3-3---3-3---3-------3-------3-------3--|
B|-3---3-3---3-3---5-------5-------5-------3--|
G|-4---4-4---4-4---5-------5-------5-------4--|
D|-5---5-5---5-5---5-------5-------5-------5--|
A|-5---5-5---5-5---3-------3-------3-------5--|
E|-3---3-3---3-3---------------------------3--| x1
   G               C                       G

SOLO 2

e|------------------------------|    |-----------------| 
B|------------------------------|    |-----------------|
G|-5-4-3-5--4-3-5--4-3-5-4-3----|    |-5-4-3-5--4-3-5--|
D|---------------------------5--|    |-----------------|
A|------------------------------|    |-----------------|
E|------------------------------| x3 |-----------------| x1

BRIDGE

  With every second, my heart gets colder
  With every minute, you're getting bolder
  If you wanna do it, do it to my face
  If you wanna do it, do it to my face, ah come on
  If you wanna do it, do it to my face
  If you wanna do it, do it to my face, ah come on!

e|----------------------------------|
B|----------------------------------|
G|----------------------------------|
D|----------------------------------|
A|----------------------------------|
E|-0---0-3-5---3---0-------3-4-5----| x8

REPEAT CHORUS AND EXTEND IT

OUTRO CHORDS

e|-3---3-3---3-3---6-----6-6-6--|
B|-3---3-3---3-3---6-----6-6-6--|
G|-4---4-4---4-4---7-----7-7-7--|
D|-5---5-5---5-5---8-----8-8-8--|
A|-5---5-5---5-5---8-----8-8-8--|
E|-3---3-3---3-3---6-----6-6-6--|
   G               A#

OUTRO SOLO

e|------------------------------|
B|------------------------------|
G|-5-4-3-5--4-3-5--4-3-5-4-3----|
D|---------------------------5--|
A|------------------------------|
E|------------------------------|

END

  I can't get you off of my my my mind

e|-3---3-3---3-3---3-------3-------3-------3--|
B|-3---3-3---3-3---5-------5-------5-------3--|
G|-4---4-4---4-4---5-------5-------5-------4--|
D|-5---5-5---5-5---5-------5-------5-------5--|
A|-5---5-5---5-5---3-------3-------3-------5--|
E|-3---3-3---3-3---------------------------3--| x1
   G               C                       G

e|-----------------------3-3-3-3--|
B|-----------------------3-3-3-3--|
G|-5-4-3-5--4-3-5--4-3---4-4-4-4--|
D|-----------------------5-5-5-5--|
A|-----------------------5-5-5-5--|
E|-----------------------3-3-3-3--|
                         G

************************************

| /   slide up
| \   slide down
| h   hammer-on
| p   pull-off
| ~   vibrato
| +   harmonic
| x   Mute note
| b   Bend
| pb  Pre-bend
| br  Bend release
| pbr Pre-bend release
| brb Bend release bend

************************************
Добавлено: 23.03.2016
Другие материалы по этой песне:
  • Аккорды и текст

Страница создана 23.03.2016
http://primanota.ru/royal-republic/when-i-see-you-dance-with-another-chords.htm
Привет, Гость.
Предлагаем пройти революционный курс по гитаре.
Подарок от PrimaNota.Ru, забирай!