PrimaNota.ru - самый крупный в мире бесплатный архив песенных текстов, аккордов, табулатур и нот


Royal Republic - Strangers Friends Lovers Strangers - таба, видео

Регистрация Запомнить меня
Войти через:  Facebook Google Twitter Vk Yandex Mail.ru

Royal Republic - Strangers Friends Lovers Strangers - таба, видео

Печатать
Просмотров: 138
hey guys, this is my tab for "strangers friends lovers strangers" by royal republic.
i think it's almost correct, i'm not 100% sure about the solo, but you can play along
with it very well.
it's -1, just because many rr songs need to be played a half step down. but you can also
play this one with standart tuning.

if you want to check it's correctness, have a look at my cover on youtube: 
http://www.youtube.com/watch?v=L1gBdJ6381Y
i also covered the whole album "save the nation", so if don't mind, watch the playlist
in my channel.

i hope you like it, and if you have questions, ask me at sven-wendt@hotmail.de

have fun!




intro

eb |---------------------------------|---------------------------------|
hb |---------------------------------|---------------------------------|
gb |---------------------------------|---------------------------------|
db |---------------------------------|---------------------------------|
ab |-----------------------------4---|-6---6---6---4-------------------|
eb |-6-------6---4---6-------6-------|-----------------6-------6---4---| x2



verse

eb |---------------------------------|---------------------------------|
hb |---------------------------------|---------------------------------|
gb |---------------------------------|---------------------------------|
db |---------------------------------|---------------------------------|
ab |-----------------------------4---|-6---6---6---4-------------------|
eb |-6-------6---4---6-------6-------|-----------------6-------6---4---| x3


eb |---------------------------------|---------------------------------|
hb |---------------------------------|---------------------------------|
gb |---------------------------------|-----------------------------11--|
db |---------------------------------|-----------------------------11--|
ab |-----------------------------4---|-6---6---6---4---------------9---|
eb |-6-------6---4---6-------6-------|-----------------6-------6-------|



chorus

eb |-------------9---9---------------|---------------------------------|
hb |-------------9---9-----------13--|-----13--14------14--13----------|
gb |-----11--11--10--10----------13--|-----13--13------13--13------11--|
db |-----11--11--11--11----------13--|-----13--13------13--13------11--|
ab |-----9---9---11--11--------------|-----------------------------9---|
eb |-------------9---9---------------|---------------------------------|


eb |-------------9---9---------------|---------------------------------|
hb |-------------9---9-----------13--|-----13--14------14--13----------|
gb |-----11--11--10--10----------13--|-----13--13------13--13------9---|
db |-----11--11--11--11----------13--|-----13--13------13--13------9---|
ab |-----9---9---11--11--------------|-----------------------------7---|
eb |-------------9---9---------------|---------------------------------|


eb |-------------7---7---------------|---------------------------------|
hb |-------------7---7-----------11--|-----11--12------12--11----------|
gb |-----9---9---8---8-----------11--|-----11--11------11--11------6---|
db |-----9---9---9---9-----------11--|-----11--11------11--11------6---|
ab |-----7---7---9---9---------------|-----------------------------4---|
eb |-------------7---7---------------|---------------------------------|


eb |---------------------------------|---------------------------------|
hb |---------------------------------|---------------------------------|
gb |-----6---6---6---6---6---6---6---|-8---8---8---8---x-x-x-x-8-------|
db |-----6---6---6---6---6---6---6---|-8---8---8---8---x-x-x-x-8-------|
ab |-----4---4---4---4---4---4---4---|-6---6---6---6---x-x-x-x-6-------|
eb |---------------------------------|---------------------------------|



pre-verse

eb |---------------------------------|---------------------------------|
hb |---------------------------------|---------------------------------|
gb |---------------------------------|---------------------------------|
db |---------------------------------|---------------------------------|
ab |-----------------------------4---|-6---6---6---4-------------------|
eb |-6-------6---4---6-------6-------|-----------------6-------6---4---| x2



verse

eb |---------------------------------|---------------------------------|
hb |---------------------------------|---------------------------------|
gb |-----------------------------6---|-8---8---8---6-------------------|
db |-8-------8---6---8-------8---6---|-8---8---8---6---8-------8---6---|
ab |-8-------8---6---8-------8---4---|-6---6---6---4---8-------8---6---|
eb |-6-------6---4---6-------6-------|-----------------6-------6---4---| x3


eb |---------------------------------|---------------------------------|
hb |---------------------------------|---------------------------------|
gb |-----------------------------6---|-8---8---8---6---------------11--|
db |-8-------8---6---8-------8---6---|-8---8---8---6---8-------8---11--|
ab |-8-------8---6---8-------8---4---|-6---6---6---4---8-------8---9---|
eb |-6-------6---4---6-------6-------|-----------------6-------6-------|



chorus

eb |-------------9---9---------------|---------------------------------|
hb |-------------9---9-----------13--|-----13--14------14--13----------|
gb |-----11--11--10--10----------13--|-----13--13------13--13------11--|
db |-----11--11--11--11----------13--|-----13--13------13--13------11--|
ab |-----9---9---11--11--------------|-----------------------------9---|
eb |-------------9---9---------------|---------------------------------|


eb |-------------9---9---------------|---------------------------------|
hb |-------------9---9-----------13--|-----13--14------14--13----------|
gb |-----11--11--10--10----------13--|-----13--13------13--13------9---|
db |-----11--11--11--11----------13--|-----13--13------13--13------9---|
ab |-----9---9---11--11--------------|-----------------------------7---|
eb |-------------9---9---------------|---------------------------------|


eb |-------------7---7---------------|---------------------------------|
hb |-------------7---7-----------11--|-----11--12------12--11----------|
gb |-----9---9---8---8-----------11--|-----11--11------11--11------6---|
db |-----9---9---9---9-----------11--|-----11--11------11--11------6---|
ab |-----7---7---9---9---------------|-----------------------------4---|
eb |-------------7---7---------------|---------------------------------|


eb |---------------------------------|---------------------------------|
hb |---------------------------------|---------------------------------|
gb |-----6---6---6---6---6---6---6---|-8---8---8---8---8---8---8-------|
db |-----6---6---6---6---6---6---6---|-8---8---8---8---8---8---8-------|
ab |-----4---4---4---4---4---4---4---|-6---6---6---6---6---6---6-------|
eb |---------------------------------|---------------------------------|




solo

eb |---------------------------------|---------------------------------|
hb |---------------------------------|---------------------------------|
gb |-----------------------------6---|-8---8---8---6-------------------|
db |-8-------8---6---8-------8---6---|-8---8---8---6---8-------8---6---|
ab |-8-------8---6---8-------8---4---|-6---6---6---4---8-------8---6---|
eb |-6-------6---4---6-------6-------|-----------------6-------6---4---| x3


eb |---------------------------------|---------------------------------|
hb |---------------------------------|---------------------------------|
gb |-----------------------------6---|-8---8---8---6---------------11--|
db |-8-------8---6---8-------8---6---|-8---8---8---6---8-------8-------|
ab |-8-------8---6---8-------8---4---|-6---6---6---4---8-------8-------|
eb |-6-------6---4---6-------6-------|-----------------6-------6-------|


(guitar 1)

eb |---------------------------------|---------------------------------|
hb |---------------------------------|---------------------------------|
gb |---------11--13--10--------------|----------------------------11---|
db |-----11--------------13--11--13--|--------13------14--13-----------|
ab |---------------------------------|----11------11-------------------|
eb |---------------------------------|---------------------------------|


eb |---------------------------------|---------------------------------|
hb |---------------------------------|------------13-------------------|
gb |---------11--13--10--------------|------------13--------------11---|
db |-----11--------------13--11------|----10--11--13-------------------|
ab |-----------------------------11--|------------11-------------------|
eb |---------------------------------|---------------------------------|


eb |---------------------------------|---------------------------------|
hb |---------------------------------|---------------------------------|
gb |---------11--13--10--------------|---------------------------------|
db |-----11--------------13--11--13--|--------15------15--13------15---|
ab |---------------------------------|----11---------------------------|
eb |---------------------------------|---------------------------------|


eb |---------------------------------|---------------------------------|
hb |-----14--------------------------|---------------------------------|
gb |---------15--13------------------|---------------------------------|
db |-----------------15--13^14-------|-----14--14--14--14--14--14--14--|
ab |---------------------------------|---------------------------------|
eb |---------------------------------|---------------------------------|


(guitar 2)

eb |-------------9---9---------------|---------------------------------|
hb |-------------9---9-----------13--|-----13--14------14--13----------|
gb |-----11--11--10--10----------13--|-----13--13------13--13------11--|
db |-----11--11--11--11----------13--|-----13--13------13--13------11--|
ab |-----9---9---11--11--------------|-----------------------------9---|
eb |-------------9---9---------------|---------------------------------| x4



verse

(guitar 1)

eb |---------------------------------|---------------------------------|
hb |---------------------------------|---------------------------------|
gb |-----------------------------6---|-8---8---8---6-------------------|
db |-8-------8---6---8-------8---6---|-8---8---8---6---8-------8---6---|
ab |-8-------8---6---8-------8---4---|-6---6---6---4---8-------8---6---|
eb |-6-------6---4---6-------6-------|-----------------6-------6---4---| x3


eb |---------------------------------|---------------------------------|
hb |---------------------------------|---------------------------------|
gb |-----------------------------6---|-8---8---8---6---------------11--|
db |-8-------8---6---8-------8---6---|-8---8---8---6---8-------8---11--|
ab |-8-------8---6---8-------8---4---|-6---6---6---4---8-------8---9---|
eb |-6-------6---4---6-------6-------|-----------------6-------6-------|


(guitar 2)

eb |---------------------------------|---------------------------------|
hb |-11--11--11--11--11--11--11--11--|-11--11--11--11--11--11--11--11--|
gb |---------------------------------|---------------------------------|
db |---------------------------------|---------------------------------|
ab |---------------------------------|---------------------------------|
eb |---------------------------------|---------------------------------| x4



chorus

eb |-------------9---9---------------|---------------------------------|
hb |-------------9---9-----------13--|-----13--14------14--13----------|
gb |-----11--11--10--10----------13--|-----13--13------13--13------11--|
db |-----11--11--11--11----------13--|-----13--13------13--13------11--|
ab |-----9---9---11--11--------------|-----------------------------9---|
eb |-------------9---9---------------|---------------------------------| x3


eb |-------------9---9---------------|---------------------------------|
hb |-------------9---9-----------13--|-----13--14------14--13----------|
gb |-----11--11--10--10----------13--|-----13--13------13--13------9---|
db |-----11--11--11--11----------13--|-----13--13------13--13------9---|
ab |-----9---9---11--11--------------|-----------------------------7---|
eb |-------------9---9---------------|---------------------------------|


eb |-------------7---7---------------|---------------------------------|
hb |-------------7---7-----------11--|-----11--12------12--11----------|
gb |-----9---9---8---8-----------11--|-----11--11------11--11------6---|
db |-----9---9---9---9-----------11--|-----11--11------11--11------6---|
ab |-----7---7---9---9---------------|-----------------------------4---|
eb |-------------7---7---------------|---------------------------------|


eb |---------------------------------|---------------------------------|
hb |---------------------------------|---------------------------------|
gb |-----6---6---6---6---6---6---6---|-8---8---8---8---8---8---8-------|
db |-----6---6---6---6---6---6---6---|-8---8---8---8---8---8---8-------|
ab |-----4---4---4---4---4---4---4---|-6---6---6---6---6---6---6-------|
eb |---------------------------------|---------------------------------|



post-chorus

eb |---------------------------------|---------------------------------|
hb |---------------------------------|---------------------------------|
gb |-----------------------------6---|-8---8---8---6-------------------|
db |-8-------8---6---8-------8---6---|-8---8---8---6---8-------8---6---|
ab |-8-------8---6---8-------8---4---|-6---6---6---4---8-------8---6---|
eb |-6-------6---4---6-------6-------|-----------------6-------6---4---|


eb |---------------------------------|---------------------------------||
hb |---------------------------------|---------------------------------||
gb |-----------------------------6---|-8---8---8---6-------------------||
db |-8-------8---6---8-------8---6---|-8---8---8---6---8---------------||
ab |-8-------8---6---8-------8---4---|-6---6---6---4---8---------------||
eb |-6-------6---4---6-------6-------|-----------------6---------------||
Добавлено: 14.06.2013
Другие материалы по этой песне:
  • Аккорды и текст

Страница создана 14.06.2013
http://primanota.ru/royal-republic/strangers-friends-lovers-strangers-chords.htm
Привет, Гость.
Предлагаем пройти революционный курс по гитаре.
Подарок от PrimaNota.Ru, забирай!