PrimaNota.ru - самый крупный в мире бесплатный архив песенных текстов, аккордов, табулатур и нот


Royal Republic - You Aint Nobody - таба, видео

Регистрация Запомнить меня
Войти через:  Facebook Google Twitter Vk Yandex Mail.ru

Royal Republic - You Aint Nobody - таба, видео

Печатать
Просмотров: 161
alright, so this is my version of "you ain't nobody ('til somebody hates you)" by royal 
republic from their 2012' album "save the nation"
i don't know if it's 100% perfect, but this is almost correct.

it's half step down tuning, not because it's necessary but it's royal republic standart 
tuning. on many songs it's necesary to play -1.
if you want to play standart tuning just think a half step lower.

to check it's correctness, have a look at my cover on 
youtube.http://www.youtube.com/watch?v=d2Ab6amG4RQ

if you have questions, corrections etc feel free to write me: sven-wendt@hotmail.de


have fun playing it!



                                  eb |---------------------------------|
                                  hb |---------------------------------|
                                  gb |---------------------------------|
                                  db |---------------------------------|
                                  ab |---------------------------------|
                                  eb |---------------------------------|
                                         i've got to get this of my


verse

eb |---------------------------------|---------------------------------|
hb |---------------------------------|---------------------------------|
gb |---------------------------------|---------------------------------|
db |---------------------------------|---------------------------------|
ab |---------------------------------|---------------------------------|
eb |---------------------------------|---------------------------------|


eb |---------------------------------|---------------------------------|
hb |---------------------------------|---------------------------------|
gb |---------------------------------|---------------------------------|
db |---------------------------------|---------------------------------|
ab |---------------------------------|---------------------------------|
eb |---------------------------------|---------------------------------|

(guitar 1/ left stero)
eb |-----6---------------------------|---------------------------------|
hb |-9-------9-----------------------|---------7---6-------------------|
gb |-------------8-------------------|-----8---------------------------|
db |---------------------------------|-9-------------------------------|
ab |---------------------------------|---------------------------------|
eb |---------------------------------|---------------------------------|


eb |---------------------------------|---------------------------------|
hb |-6-------------------------------|---------------------------------|
gb |-----6---------------8-----------|---------------------------------|
db |-----------------9---------------|-6-------------------------------|
ab |---------------------------------|---------------------------------|
eb |---------------------------------|---------------------------------|


(guitar 2/ right stereo)
eb |---------6-----------------------|---------------------------------|
hb |-----9-------9-------------------|-------------7---6---------------|
gb |-----------------8---------------|---------8-----------------------|
db |---------------------------------|-----9---------------------------|
ab |---------------------------------|---------------------------------|
eb |---------------------------------|---------------------------------|


eb |---------------------------------|---------------------------------|
hb |-6-------------------------------|---------------------------------|
gb |---------6-------------8---------|---------------------------------|
db |-------------------9-------------|-6-------------------------------|
ab |---------------------------------|---------------------------------|
eb |---------------------------------|---------------------------------|



chorus

eb |---------------------------------|---------------------------------|
hb |---9---9---9---9---9---9---9---9-|---9---9---9---9---9---9---9---9-|
gb |---------------------------------|---------------------------------|
db |---------------------------------|---------------------------------|
ab |---------------------------------|---------------------------------|
eb |---------------------------------|---------------------------------|


eb |---------------------------------|---------------------------------|
hb |---9---9---9---9---9---9---9---9-|---9---9---9---9---9---9---9---9-|
gb |---------------------------------|---------------------------------|
db |---------------------------------|---------------------------------|
ab |---------------------------------|---------------------------------|
eb |---------------------------------|---------------------------------|


eb |---------------------------------|---------------------------------|
hb |---9---9---9---9---9---9---9---9-|---9---9---9---9---9---9---9---9-|
gb |---------------------------------|---------------------------------|
db |---------------------------------|---------------------------------|
ab |---------------------------------|---------------------------------|
eb |---------------------------------|---------------------------------|


eb |---------------------------------|---------------------------------|
hb |---9---9---9---9---9---9---9---9-|---9---9---9---9-----------------|
gb |---------------------------------|---------------------------------|
db |---------------------------------|---------------------------------|
ab |---------------------------------|---------------------------------|
eb |---------------------------------|---------------------------------|



verse

(guitar 1/ left stereo)
eb |-----6---------------------------|---------------------------------|
hb |-9-------9-----------------------|---------7---6-------------------|
gb |-------------8-------------------|-----8---------------------------|
db |---------------------------------|-9-------------------------------|
ab |---------------------------------|---------------------------------|
eb |---------------------------------|---------------------------------|


eb |---------------------------------|---------------------------------|
hb |-6-------------------------------|---------------------------------|
gb |-----6---------------8-----------|---------------------------------|
db |-----------------9---------------|-6-------------------------------|
ab |---------------------------------|---------------------------------|
eb |---------------------------------|---------------------------------| x2


(guitar 2/ right stereo)
eb |---------6-----------------------|---------------------------------|
hb |-----9-------9-------------------|-------------7---6---------------|
gb |-----------------8---------------|---------8-----------------------|
db |---------------------------------|-----9---------------------------|
ab |---------------------------------|---------------------------------|
eb |---------------------------------|---------------------------------|


eb |---------------------------------|---------------------------------|
hb |-6-------------------------------|-----9-9-9-9-9-9-9-9-9-9-9-9-9-9-|
gb |---------6-------------8---------|---------------------------------|
db |-------------------9-------------|-6-------------------------------|
ab |---------------------------------|---------------------------------|
eb |---------------------------------|---------------------------------| x2



chorus

eb |---------------------------------|---------------------------------|
hb |---------------------------------|---------------------------------|
gb |-4-4-4-4-4-4-4-4-6-6-6-6---------|---------------------------------|
db |-4-4-4-4-4-4-4-4-6-6-6-6-8-8-8-8-|-6-6-6-6-6-6-6-6-6-6-6-6-6-6-6-6-|
ab |-2-2-2-2-2-2-2-2-4-4-4-4-8-8-8-8-|-6-6-6-6-6-6-6-6-6-6-6-6-6-6-6-6-|
eb |-------------------------6-6-6-6-|-4-4-4-4-4-4-4-4-4-4-4-4-4-4-4-4-|


eb |---------------------------------|---------------------------------|
hb |---------------------------------|---------------------------------|
gb |-6-6-6-6-6-6-6-6-4-4-4-4---------|---------------------------------|
db |-6-6-6-6-6-6-6-6-4-4-4-4-4-4-4-4-|-6-6---6-6-6---6-6-6---6-6-x-x-x-|
ab |-4-4-4-4-4-4-4-4-2-2-2-2-4-4-4-4-|-6-6---6-6-6---6-6-6---6-6-x-x-x-|
eb |-------------------------2-2-2-2-|-4-4---4-4-4---4-4-4---4-4-x-x-x-| x2



bridge

eb |---------------------------------|---------------------------------|
hb |---------------------------------|---------------------------------|
gb |-4-4-4-4-4-4-4-4-7-7-7-7---------|-----------4^--------------4^----|
db |-4-4-4-4-4-4-4-4-7-7-7-7-8-8-8-8-|-----6---------------6-----------|
ab |-2-2-2-2-2-2-2-2-5-5-5-5-8-8-8-8-|---------------------------------|
eb |-------------------------6-6-6-6-|-4-4---4-4-------4-4---4-4-------|


eb |---------------------------------|---------------------------------|
hb |---------------------------------|---------------------------------|
gb |-4-4-4-4-4-4-4-4-7-7-7-7-10101010|-----------6^--------------6^----|
db |-4-4-4-4-4-4-4-4-7-7-7-7-10101010|-----6---------------6-----------|
ab |-2-2-2-2-2-2-2-2-5-5-5-5-8-8-8-8-|---------------------------------|
eb |---------------------------------|-4-4---4-4-------4-4---4-4-------|


eb |---------------------------------|---------------------------------|
hb |---------------------------------|-----------4---------------4-----|
gb |-4-4-4-4-4-4-4-4-7-7-7-7---------|---------------------------------|
db |-4-4-4-4-4-4-4-4-7-7-7-7-8-8-8-8-|-----6---------------6-----------|
ab |-2-2-2-2-2-2-2-2-5-5-5-5-8-8-8-8-|---------------------------------|
eb |-------------------------6-6-6-6-|-4-4---4-4-------4-4---4-4-------|


eb |---------------------------------|---------------------------------|
hb |---------------------------------|-----------6^--------------6^----|
gb |-4-4-4-4-4-4-4-4-7-7-7-7-10101010|---------------------------------|
db |-4-4-4-4-4-4-4-4-7-7-7-7-10101010|-----6---------------6-----------|
ab |-2-2-2-2-2-2-2-2-5-5-5-5-8-8-8-8-|---------------------------------|
eb |---------------------------------|-4-4---4-4-------4-4---4-4-------|


eb |---------------------------------|---------------------------------|
hb |---------------------------6^----|-----------6^--------------6^----|
gb |---------------------------------|---------------------------------|
db |-----6-------6-------6-----------|-----6---------------6-----------|
ab |---------------------------------|---------------------------------|
eb |-4-4---4-4-4---4-4-4---4-4-------|-4-4---4-4-------4-4---4-4-------|


eb |---------------------------------|---------------------------------|
hb |---------------------------6^----|-bend 6^ the whole bar-----------|
gb |---------------------------------|---------------------------------|
db |-----6-------6-------6-----------|---------------------------------|
ab |---------------------------------|---------------------------------|
eb |-4-4---4-4-4---4-4-4---4-4-------|---------------------------------|



chorus

eb |---------------------------------|---------------------------------|
hb |---------------------------------|---------------------------------|
gb |-4-4-4-4-4-4-4-4-6-6-6-6---------|---------------------------------|
db |-4-4-4-4-4-4-4-4-6-6-6-6-8-8-8-8-|-6-6-6-6-6-6-6-6-6-6-6-6-6-6-6-6-|
ab |-2-2-2-2-2-2-2-2-4-4-4-4-8-8-8-8-|-6-6-6-6-6-6-6-6-6-6-6-6-6-6-6-6-|
eb |-------------------------6-6-6-6-|-4-4-4-4-4-4-4-4-4-4-4-4-4-4-4-4-|


eb |---------------------------------|---------------------------------|
hb |---------------------------------|---------------------------------|
gb |-6-6-6-6-6-6-6-6-4-4-4-4---------|---------------------------------|
db |-6-6-6-6-6-6-6-6-4-4-4-4-4-4-4-4-|-6-6---6-6-6---6-6-6---6-6-x-x-x-|
ab |-4-4-4-4-4-4-4-4-2-2-2-2-4-4-4-4-|-6-6---6-6-6---6-6-6---6-6-x-x-x-|
eb |-------------------------2-2-2-2-|-4-4---4-4-4---4-4-4---4-4-x-x-x-| x2


eb |---------------------------------|---------------------------------|
hb |---------------------------------|---------------------------------|
gb |-4-4-4-4-4-4-4-4-6-6-6-6---------|---------------------------------|
db |-4-4-4-4-4-4-4-4-6-6-6-6-8-8-8-8-|-6-6-6-6-6-6-6-6-6-6-6-6-6-6-6-6-|
ab |-2-2-2-2-2-2-2-2-4-4-4-4-8-8-8-8-|-6-6-6-6-6-6-6-6-6-6-6-6-6-6-6-6-|
eb |-------------------------6-6-6-6-|-4-4-4-4-4-4-4-4-4-4-4-4-4-4-4-4-|


eb |---------------------------------|---------------------------------|
hb |---------------------------------|---------------------------------|
gb |-6-6-6-6-6-6-6-6-4-4-4-4---------|---------------------------------|
db |-6-6-6-6-6-6-6-6-4-4-4-4-4-4-4-4-|-6-6-6-6-6-6-6-6-XXXXX-XXX-X-XXXX|
ab |-4-4-4-4-4-4-4-4-2-2-2-2-4-4-4-4-|-6-6-6-6-6-6-6-6-XXXXX-XXX-X-XXXX|
eb |-------------------------2-2-2-2-|-4-4-4-4-4-4-4-4-XXXXX-XXX-X-XXXX|


eb |---------------------------------|---------------------------------|
hb |---------------------------------|---------------------------------|
gb |-4-4-4-4-4-4-4-4-6-6-6-6---------|---------------------------------|
db |-4-4-4-4-4-4-4-4-6-6-6-6-8-8-8-8-|-6-6-6-6-6-6-6-6-6-6-6-6-6-6-6-6-|
ab |-2-2-2-2-2-2-2-2-4-4-4-4-8-8-8-8-|-6-6-6-6-6-6-6-6-6-6-6-6-6-6-6-6-|
eb |-------------------------6-6-6-6-|-4-4-4-4-4-4-4-4-4-4-4-4-4-4-4-4-|


eb |---------------------------------|---------------------------------|
hb |---------------------------------|-----------6^--------------6^----|
gb |-6-6-6-6-6-6-6-6-4-4-4-4---------|---------------------------------|
db |-6-6-6-6-6-6-6-6-4-4-4-4-4-4-4-4-|-----6---------------6-----------|
ab |-4-4-4-4-4-4-4-4-2-2-2-2-4-4-4-4-|---------------------------------|
eb |-------------------------2-2-2-2-|-4-4---4-4-------4-4---4-4-------|


eb |---------------------------------|---------------------------------|
hb |---------------------------6^----|-----------6^--------------6^----|
gb |---------------------------------|---------------------------------|
db |-----6-------6-------6-----------|-----6---------------6-----------|
ab |---------------------------------|---------------------------------|
eb |-4-4---4-4-4---4-4-4---4-4-------|-4-4---4-4-------4-4---4-4-------|


eb |---------------------------------||
hb |---------------------------6^----||
gb |---------------------------------||
db |-----6-------6-------6-----------||
ab |---------------------------------||
eb |-4-4---4-4-4---4-4-4---4-4-------||
Добавлено: 08.12.2013
Другие материалы по этой песне:
  • Аккорды и текст

Страница создана 08.12.2013
http://primanota.ru/royal-republic/you-aint-nobody-chords.htm
Привет, Гость.
Предлагаем пройти революционный курс по гитаре.
Подарок от PrimaNota.Ru, забирай!