PrimaNota.ru - самый крупный в мире бесплатный архив песенных текстов, аккордов, табулатур и нот


Royal Republic - Tommy-gun - текст песни, таба, бас-таба, видео

Регистрация Запомнить меня
Войти через:  Facebook Google Twitter Vk Yandex Mail.ru

Royal Republic - Tommy-gun - текст песни, таба, бас-таба, видео

Печатать
Просмотров: 974
Уроки эстрадного вокала в Санкт-Петербурге
Artist: Royal Republic
Song: Tommy-Gun
Transcribed: joskuu / joskuu[at]gmail[dot]com

Trying to give some overview.

Tuning: Eb (every string half step down)


Riff 1A:					 
eb|----------------------|---------------------|----------------------|---------------------|
Bb|----------------------|---------------------|----------------------|--999-9-7~~----------|
Gb|--11-10-11-10-11-7----|--11-10-11-10-11-7~--|--11-10-11-10-11-7----|--999-9-7~~----------|
Db|-------------------9~-|---------------------|-------------------9~-|---------------------|
Ab|----------------------|---------------------|----------------------|---------------------|
Eb|----------------------|---------------------|----------------------|---------------------|


Riff 1B:					 
eb|----------------------|---------------------|----------------------|---------------------|
Bb|----------------------|---------------------|----------------------|---------------------|
Gb|--11-10-11-10-11-7----|--11-10-11-10-11-7~--|--11-10-11-10-11-7----|---(9-9-9-9-9)-------|
Db|-------------------9~-|---------------------|-------------------9~-|---(9-9-9-9-9)-------|
Ab|----------------------|---------------------|----------------------|---------------------|
Eb|----------------------|---------------------|----------------------|---------------------|


Riff 2A (Chorus):					 
eb|----------------------|------------------------------|---------------------|
Bb|----------------------|------------------------------|--999-9-7~~----------|
Gb|--11-11-9-11--9-7---7-|-9/11-9-7---7--9/11-9-7---7-9-|--999-9-7~~----------|
Db|--11-11-9-11--9-7-9-7-|-9/11-9-7-9-7--9/11-9-7-9-7-9-|---------------------|
Ab|------------------9---|----------9-------------9-----|---------------------|
Eb|----------------------|------------------------------|---------------------|


Riff 3A:					 
eb|----------------------------------------------------------|
Bb|-------------10-------------------------------------------|
Gb|--11-11-9-11----11-9-11\9-9^11-9-7---7--9-9^11-9-7---7\...|
Db|-----------------------------------9---------------9------|
Ab|----------------------------------------------------------|
Eb|----------------------------------------------------------|


Riff 2B (Chorus):					 
eb|----------------------|------------------------------|---------------------|
Bb|----------------------|------------------------------|---------------------|
Gb|--11-11-9-11--9-7---7-|-9/11-9-7---7--9/11-9-7---7-9-|--9/11-9-7---7-------|
Db|--11-11-9-11--9-7-9-7-|-9/11-9-7-9-7--9/11-9-7-9-7-9-|--9/11-9-7-9-7-9-----|
Ab|------------------9---|----------9-------------9-----|-----------9---9-----|
Eb|----------------------|------------------------------|---------------7-----|


Riff 4 (Bridge):					 
eb|---------------------------------|
Bb|---------------------------------|
Gb|---------------------------------|
Db|------9-------9-------9-------9--|
Ab|---------------------------------|
Eb|--7-------7-------7-------7------|


Riff 3B (Guitar solo):	     (After 2x)
eb|-------------------------------------------------------------------------|    |--------|
Bb|-------------10---------------------------------------------999-9-7~~----|    |--------|
Gb|--11-11-9-11----11-9-11\9-9^11-9-7---7--9-9^11-9-7---7-9----999-9-7~~----|    |--------|
Db|-----------------------------------9---------------9---------------------|    |--9~~---|
Ab|-------------------------------------------------------------------------|    |--9~~---|
Eb|-------------------------------------------------------------------------|    |--7~~---|


Riff 5 (Bridge 2):    [Palm mute]
eb|--------|--------|--------|--------|--------|--------|--------|--------|
Bb|--------|--------|--------|--------|--------|--------|--------|--------|
Gb|--------|--------|--------|-999999-|--------|--------|--------|-9~~----|
Db|-999999-|-999999-|-999999-|-999999-|-999999-|-999999-|-999999-|-9~~----|
Ab|-999999-|-999999-|-999999-|-777777-|-999999-|-999999-|-999999-|-7~~----|
Eb|-777777-|-777777-|-777777-|--------|-777777-|-777777-|-777777-|--------|


Riff 2C (Chorus):					 
eb|----------------------|------------------------------|---------------------|  |------------|
Bb|----------------------|------------------------------|---------------------|  |--999-9-7~~-|
Gb|--11-11-9-11--9-7---7-|-9/11-9-7---7--9/11-9-7---7-9-|--9/11-9-7---7-99999-|  |--999-9-7~~-|
Db|--11-11-9-11--9-7-9-7-|-9/11-9-7-9-7--9/11-9-7-9-7-9-|--9/11-9-7-9-7-99999-|  |------------|
Ab|------------------9---|----------9-------------9-----|-----------9---------|  |------------|
Eb|----------------------|------------------------------|---------------------|  |------------|


Riff 1A                x2
Riff 1B                x1
Riff 2A (Chorus)       x2
Riff 3A                x1
Riff 1A                x1
Riff 1B                x1
Riff 2A (Chorus)       x2
Riff 2B (Chorus)       x1
Riff 4  (Bridge)       x4
Riff 3B (Guitar solo)  x2
...
Riff 5  (Bridge 2)     x1
Riff 2A (Chorus)       x2
Riff 2C (Chorus)       x1


http://www.royalrepublicband.com/
http://www.myspace.com/royalrepublicsweden
Добавлено: 26.05.2012
Другие материалы по этой песне:

Страница создана 10.03.2012
http://primanota.ru/royal-republic/tommy-gun-chords.htm
Привет, Гость.
Предлагаем пройти революционный курс по гитаре.
Подарок от PrimaNota.Ru, забирай!