PrimaNota.ru - самый крупный в мире бесплатный архив песенных текстов, аккордов, табулатур и нот


Royal Republic - Baby - таба, видео

Регистрация Запомнить меня
Войти через:  Facebook Google Twitter Vk Yandex Mail.ru

Royal Republic - Baby - таба, видео

Печатать
Просмотров: 121
Уроки эстрадного вокала в Санкт-Петербурге
-------------------------------------------------------------------------------
                              BABY - Royal Republic                           
-------------------------------------------------------------------------------

Baby
Royal Republic
From the album: Weekend Man (2016)
Tabbed by egg-marteeni
15 January 2016

Tuning: Standard (EADGBe)

Here's the tab, or as well as I could make it out, for "Baby" by Royal Republic.
Enjoy!

INTRO

(Guitar 1 - Chords)

e|-------------------------|
B|-------------------------|
G|-7--------------0-5-0-5--|
D|-7--------------0-5-0-5--|
A|-5--------------0-3-0-3--|
E|-------------------------|

(Guitar 2 - Riff)

e|-X--X--X--X--X--X--X--X--|
B|-X--X--X--X--X--X--X--X--|
G|-X--X--X--X--X--X--X--X--|
D|-X--X--X--X--X--X--X--X--|
A|-X--X--X--X--X--X--X--X--|
E|-X--X--X--X--X--X--X--X--|

VERSE

(Guitar 1 - Chords)

e|-------------------------|
B|-------------------------|
G|-7--7--7--7--7--0-5-0-5--|
D|-7--7--7--7--7--0-5-0-5--|
A|-5--5--5--5--5--0-3-0-3--|
E|-------------------------|

(Guitar 2 - Riff)

e|-------------------------|
B|-------------------------|
G|-------------------------|
D|------------------3---3--|
A|-5--5--5--5--5--5---5----|
E|-------------------------|

CHORUS

e|-------------------------------------------------|
B|-------------------------------------------------|
G|-5--5--5--5--------------7--7--7--7--7--7--7--7--|
D|-5--5--5--5--5--5--5--5--7--7--7--7--7--7--7--7--|
A|-3--3--3--3--5--5--5--5--5--5--5--5--5--5--5--5--|
E|-------------3--3--3--3--------------------------|

JUST AFTER THE "DIFFERENT SONG" PART - FEW NOTES BEFORE CHORUS

(Guitar 2 - Riff)

e|-X--X--X--X--X--X--X--X--|
B|-X--X--X--X--X--X--X--X--|
G|-X--X--X--X--X--X--X--X--|
D|-X--X--X--X--X--X--X--X--|
A|-X--X--X--X--X--X--X--X--|
E|-X--X--X--X--X--X--X--X--|

MAIN SOLO (STARTS AT 1:35)

(Guitar 1 - Chords)

e|-------------------------|
B|-------------------------|
G|-7--7--7--7--7--0-5-0-5--|
D|-7--7--7--7--7--0-5-0-5--|
A|-5--5--5--5--5--0-3-0-3--|
E|-------------------------|

(Guitar 2 - Riff)

e|--------------------------|
B|--------------------------|
G|--------------------------|
D|--------------------------|
A|--------------------------|
E|--------------------------|
Unknown - suggestions welcome

************************************

| /   slide up
| \   slide down
| h   hammer-on
| p   pull-off
| ~   vibrato
| +   harmonic
| x   Mute note
| b   Bend
| pb  Pre-bend
| br  Bend release
| pbr Pre-bend release
| brb Bend release bend

************************************
Добавлено: 23.03.2016
Вам также может быть интересно:
Другие материалы по этой песне:
  • Аккорды и текст

Страница создана 23.03.2016
http://primanota.ru/royal-republic/baby-chords.htm
Привет, Гость.
Предлагаем пройти революционный курс по гитаре.
Подарок от PrimaNota.Ru, забирай!