PrimaNota.ru - самый крупный в мире бесплатный архив песенных текстов, аккордов, табулатур и нот


Royal Republic - Addictive - таба, бас-таба, видео

Регистрация Запомнить меня
Войти через:  Facebook Google Twitter Vk Yandex Mail.ru

Royal Republic - Addictive - таба, бас-таба, видео

Печатать
Просмотров: 457
Adams part, very easy

Verse riff

E|--------------------|
B|--------------------|
G|--------------------|
D|--------------------|
A|-------------1------|
E|-3--3--1--3-----3-1-|

Chorus

E|---------------------------------------------------------------------------------------|
B|---------------------------------------------------------------------------------------|
G|-5-5-5-5-5-5-5-5---8-8-8-8-8-8-8-8---12-12-12-12-12-12-12-12---10-10-10-10-10-10-10-10-|
D|-5-5-5-5-5-5-5-5---8-8-8-8-8-8-8-8---12-12-12-12-12-12-12-12---10-10-10-10-10-10-10-10-|
A|-3-3-3-3-3-3-3-3---6-6-6-6-6-6-6-6---10-10-10-10-10-10-10-10---8--8--8--8--8--8--8--8--|
E|---------------------------------------------------------------------------------------|

E|----------------------------------------------------------------------------------|
B|----------------------------------------------------------------------------------|
G|-5-5-5-5-5-5-5-5---8-8-8-8-8-8-8-8-8-8-8-8-8-8-8-8---10-10-10-10-10-10-10-10---12-|
D|-5-5-5-5-5-5-5-5---8-8-8-8-8-8-8-8-8-8-8-8-8-8-8-8---10-10-10-10-10-10-10-10---12-|
A|-3-3-3-3-3-3-3-3---6-6-6-6-6-6-6-6-6-6-6-6-6-6-6-6---8--8--8--8--8--8--8--8----10-|
E|----------------------------------------------------------------------------------|

After chorus

I'm not sure about this, but goes somewhat like this.

E|-----------------------------------|
B|-----------------------------------|
G|-----------------------------------|
D|-----------------------------------|
A|1---1--1-1-------1-1-1---1---1---1-|
E|--3--------3-1-3-------3---3---3---|

Any corrections are welcome.
Добавлено: 28.10.2014
Другие материалы по этой песне:

Страница создана 24.06.2013
http://primanota.ru/royal-republic/addictive-chords.htm
Привет, Гость.
Предлагаем пройти революционный курс по гитаре.
Подарок от PrimaNota.Ru, забирай!