PrimaNota.ru - самый крупный в мире бесплатный архив песенных текстов, аккордов, табулатур и нот


Royal Republic - Molotov - таба, видео

Регистрация Запомнить меня
Войти через:  Facebook Google Twitter Vk Yandex Mail.ru

Royal Republic - Molotov - таба, видео

Печатать
Просмотров: 319
molotov

standard tune (E)

guitar 1

intro

--------|
--------|
66------|
66-44-7-|
44-44-7-|
---22-5-|

guitar 1

riff

----------------------------|
----------------------------|
66----------66---------6666-|
66-44-77-66-66-44-77-6-6666-| 2x
44-44-77-66-44-44-77-6-4444-|
---22-55-44----22-55-4------|

guitar 2

riff

---------------------------------------|
--14-13-12-10-5-9-----14-13-12-10-5-9~-|
6-----------------8-6------------------|
---------------------------------------|
---------------------------------------|
---------------------------------------|

guitar 1

verse 1-2

------------------|
------------------|
66-6--------------|
66-6-44-4-77-7-66-|
44-4-44-4-77-7-66-|
-----22-2-55-5-44-|

guitar 2

verse 1

------------------|
------------------|
66-6--------------|
-----44-4-77-7-66-|
------------------|
------------------|

guitar 2

verse 2

--------------------------------|
--------------------------------|
6-6-6-6-6-6-6-6-6-6-6-6-5-5-5-5-|
--------------------------------|
--------------------------------|
--------------------------------|

chorus

both guitars

---------------------------------------------------|
---------------------------------------------------|
999999-111111111111--------------999999------------|
999999-111111111111-111111111111-999999-777777-6-6-|
777777-111111111111-111111111111-777777-777777-6-6-|
--------------------9-9-9-9-9-9---------555555-4-4-|

guitar 1

riff

----------------------------|
----------------------------|
66----------66---------6666-|
66-44-77-66-66-44-77-6-6666-| 2x
44-44-77-66-44-44-77-6-4444-|
---22-55-44----22-55-4------|

guitar 2

riff

---------------------------------------|
--14-13-12-10-5-9-----14-13-12-10-5-9~-|
6-----------------8-6------------------|
---------------------------------------|
---------------------------------------|
---------------------------------------|

guitar 1

verse 1-2

------------------|
------------------|
66-6--------------|
66-6-44-4-77-7-66-|
44-4-44-4-77-7-66-|
-----22-2-55-5-44-|

guitar 2

verse 1

------------------|
------------------|
66-6--------------|
-----44-4-77-7-66-|
------------------|
------------------|

guitar 2

verse 2

--------------|
9-7-------7---|
----9-6-9---6-|
--------------| 3x
--------------|
--------------|

999988887777654321-
-------------------|
-------------------|
-------------------|
-------------------|
-------------------|

chorus

both guitars

---------------------------------------------------|
---------------------------------------------------|
999999-111111111111--------------999999------------|
999999-111111111111-111111111111-999999-777777-6-6-|
777777-111111111111-111111111111-777777-777777-6-6-|
--------------------9-9-9-9-9-9---------555555-4-4-|

guitar 2

solo

--------------------------------|
--------------------------------|
6-6-6-6-6-6-6-6-6-6-6-6-5-5-5-5-|
--------------------------------|
--------------------------------|
--------------------------------|

chorus

both guitars

---------------------------------------------------|
---------------------------------------------------|
999999-111111111111--------------999999------------|
999999-111111111111-111111111111-999999-777777-6-6-|
777777-111111111111-111111111111-777777-777777-6-6-|
--------------------9-9-9-9-9-9---------555555-4-4-|

guitar 1

riff

----------------------------|
----------------------------|
66----------66---------6666-|
66-44-77-66-66-44-77-6-6666-| 2x
44-44-77-66-44-44-77-6-4444-|
---22-55-44----22-55-4------|

guitar 2

riff

---------------------------------------|
--14-13-12-10-5-9-----14-13-12-10-5-9~-|
6-----------------8-6------------------|
---------------------------------------|
---------------------------------------|
---------------------------------------|

guitar 1

end
--------|
--------|
66------|
66-44-7-|
44-44-7-|
---22-5-|
Добавлено: 22.11.2013
Другие материалы по этой песне:

Страница создана 16.09.2013
http://primanota.ru/royal-republic/molotov-chords.htm
Привет, Гость.
Предлагаем пройти революционный курс по гитаре.
Подарок от PrimaNota.Ru, забирай!