PrimaNota.ru - самый крупный в мире бесплатный архив песенных текстов, аккордов, табулатур и нот


Misc Computer Games - Zoo Tycoon 2 - Blue Whale Hall - таба

Регистрация Запомнить меня
Войти через:  Facebook Google Twitter Vk Yandex Mail.ru

Misc Computer Games - Zoo Tycoon 2 - Blue Whale Hall - таба

Печатать
Просмотров: 107
Blue Whale Hall (Theme) - Tab

Tuning: Standard

Effects: Reverb, Tremolo at times

Note: This plays when you walk through the Blue Whale Hall 
which is a building that comes with the expansion pack 
called "Marine Mania" for the game, "Zoo Tycoon 2."

___________________

Key

\  = slide down
~  = let ring
*  = tremolo
___________________

[0:02-0:17]
E|------------------------------------------------------------|
B|------------5~---------------------8\5--5~------------------|
G|-7------5---------------7------5----------------------------|
D|------------------------------------------------------------|
A|------------------------------------------------------------|
E|------------------------------------------------------------|
   *          *           *               *

[0:21-0:38]
[x2]
E|------------------------------------------------------------|
B|------------------5-----------------------------------------|
G|-5~--------5--4------7~-------------------------------------|
D|------------------------------------------------------------|
A|------------------------------------------------------------|
E|------------------------------------------------------------|
   *                   *

[0:40-1:04]
[x2]
E|-8--5--------8--5-------------------------------------------|
B|-------8--6--------8--6--7--7--7--7--7--7--7--5--5~---------|
G|------------------------------------------------------------|
D|------------------------------------------------------------|
A|------------------------------------------------------------|
E|------------------------------------------------------------|

If there's any confusion, questions, or advice on how to 
improve it, please post a comment. Have fun playing, and 
please rate! -Rarrlow
Добавлено: 14.09.2015
Другие материалы по этой песне:
  • Аккорды и текст

Страница создана 14.09.2015
http://primanota.ru/misc-computer-games/zoo-tycoon-2-blue-whale-hall-chords.htm
Привет, Гость.
Предлагаем пройти революционный курс по гитаре.
Подарок от PrimaNota.Ru, забирай!