PrimaNota.ru - самый крупный в мире бесплатный архив песенных текстов, аккордов, табулатур и нот


Misc Computer Games - Bionic Commando - Albatross Theme - таба, бас-таба, видео

Регистрация Запомнить меня
Войти через:  Facebook Google Twitter Vk Yandex Mail.ru

Misc Computer Games - Bionic Commando - Albatross Theme - таба, бас-таба, видео

Печатать
Просмотров: 82
Gtr I (E A D G B E) - 'Sawtooth'
Gtr II (E A D G B E) - 'Square Wave'

    Q=140
    Gtr I
     S S S S E S S   S  S  E   S   S  S S    S  S S S E  S S   S  S E  S S S S
||----------------------------------------|------------------------------------|
||o---------------------------------------|------------------------------------|
||----------------------------------------|------------------------------------|
||-----5-6-7-5----------------------------|-----5-6-7-5------------------------|
||o--8---------------5--7--5---5---7--5---|--8-----------------5--7-5--5-7-5---|
||-------------5-8----------------------8-|--------------5-8-----------------8-|
|
|   Gtr II
|    ~~                                      ~~~
|    H              +E     E  +S   E.        Q.          E    +Q       Q
||----------------------------------------|------------------------------------|
||o---------------------------------------|------------------------------------|
||----------------------------------------|------------------------------------|
||----------------------------------------|------------------------------------|
||o-10-------------(10)---12-(12)-13------|-------------10---(10)-----12-------|
||----------------------------------------|-13---------------------------------|
|
|   Gtr I
|    ~~                                      ~~~
|    H               E     E  +S   E.        Q.          E    +Q       Q
||----------------------------------------|------------------------------------|
||o---------------------------------------|------------------------------------|
||--12--------------12----14-(14)-15------|-------------12---(12)-----14-------|
||----------------------------------------|-15---------------------------------|
||o---------------------------------------|------------------------------------|
||----------------------------------------|------------------------------------|


   S S S S E S S   S  S  E   S   S  S S    S  S S S E  S S   S  S E  S S S S
|---------------------------------------|-----------------------------------|
|---------------------------------------|-----------------------------------|
|---------------------------------------|-----------------------------------|
|----5-6-7-5----------------------------|-----5-6-7-5-----------------------|
|--8---------------5--7--5---5---7--5---|--8-----------------5--7-5--5-7-5--|
|------------5-8----------------------8-|--------------5-8-----------------8|
|
|  ~~                                      ~~~
|  H              +E     E  +S   E.        Q.          E    +Q       Q
|---------------------------------------|-----------------------------------|
|---------------------------------------|-----------------------------------|
|---------------------------------------|-----------------------------------|
|---------------------------------------|-----------------------------------|
|---------------------------------------|---------------------------12------|
|-12-------------(12)---10-(10)--8------|-10----------13---(13)-------------|
|
|  ~~                                      ~~~
|  H              +E     E  +S   E.        Q.          E    +Q       Q
|---------------------------------------|-----------------------------------|
|---------------------------------------|-----------------------------------|
|---------------------------------------|---------------------------14------|
|-14-------------(14)---12-(12)-10------|-12----------15---(15)-------------|
|---------------------------------------|-----------------------------------|
|---------------------------------------|-----------------------------------|


   S  S  S  S  E  S  S  S  S  E  S  S  S  S
|-------------------------------------------|
|-------------------------------------------|
|-------------------------------------------|
|-----5--6--7--5----------------------------|
|--8--------------------5--7--5--5--7--5----|
|-----------------5--8--------------------8-|
|
|  S  S  S  S  E  S  S  S  S  E  S  S  S  S
|-------------------------------------------|
|-------------------------------------------|
|--------9-10--9-----------9-----------9-10-|
|-10-12-------------10-12----12-10-12-------|
|----------------12-------------------------|
|-------------------------------------------|
|
|  S  S  S  S  E  S  S  S  S  E  S  S  S  S
|-------12-13-12----------12----------12-13-|
|-13-15-------------13-15----15-13-15-------|
|----------------14-------------------------|
|-------------------------------------------|
|-------------------------------------------|
|-------------------------------------------|


   S S  S  S  E     S  S  S  S  E  S  S  S  S
|----------------------------------------------||
|---------------------------------------------o||
|----------------------------------------------||
|----5--6--7--5--------------------------------||
|--8----------------------5--7--5--5--7--5----o||
|-------------------5--8--------------------8--||
|
|  E    S  S  S  S  E  S  S  S  S  S  S  S  S
|----------------------------------------------||
|------------------------------------10-11-13-o||
|--9-------------9-----------9-10-12-----------||
|---------10-12----12-10-12--------------------||
|------12-------------------------------------o||
|----------------------------------------------||
|
|  E    S  S  S  S  E  S  S  S  S  S  S  S  S
|-12---------------------------------17-18-20--||
|------------15-17-15----15-17-18-20----------o||
|------14-17----------18-----------------------||
|----------------------------------------------||
|---------------------------------------------o||
|----------------------------------------------||
Добавлено: 18.02.2016
Другие материалы по этой песне:

Страница создана 15.02.2016
http://primanota.ru/misc-computer-games/bionic-commando-albatross-theme-chords.htm
Привет, Гость.
Предлагаем пройти революционный курс по гитаре.
Подарок от PrimaNota.Ru, забирай!