PrimaNota.ru - самый крупный в мире бесплатный архив песенных текстов, аккордов, табулатур и нот


Misc Computer Games - Axel F - Crazy Frog Theme - таба, видео

Регистрация Запомнить меня
Войти через:  Facebook Google Twitter Vk Yandex Mail.ru

Misc Computer Games - Axel F - Crazy Frog Theme - таба, видео

Печатать
Просмотров: 86
Standard tuning, no capo

beware this is only my second tab

High Version:

e|------4--------6----------8--------9-8-4-----8-13-8------------------------|
B|-6---------6-6--6-4---6--------6-6---------6--------4-4---8-4--------------|
G|--------------------------------------------------------5------------------|
D|---------------------------------------------------------------------3--3--|
A|---------------------------------------------------------------------------|
E|---------------------------------------------------------------------------| x2

Low Version:

e|-----------------------------------------------1---------------------------|
B|--------------------------1--------2-1-------1----1------------------------|
G|------1--------3-----------------------1------------------0----------------|
D|-3---------3-3--3-1---3--------3-3---------3--------1-1-----3--------------|
A|--------------------------------------------------------3------------------|
E|---------------------------------------------------------------------1--1--| x2



*cut the notes short (do not let them ring)*

Thanks I hoped you licked it
peace (._.)
Добавлено: 10.09.2015
Другие материалы по этой песне:
  • Аккорды и текст

Страница создана 10.09.2015
http://primanota.ru/misc-computer-games/axel-f-crazy-frog-theme-chords.htm
Привет, Гость.
Предлагаем пройти революционный курс по гитаре.
Подарок от PrimaNota.Ru, забирай!