PrimaNota.ru - самый крупный в мире бесплатный архив песенных текстов, аккордов, табулатур и нот


Misc Computer Games - Zoo Tycoon 2 - Fossil Puzzle Game - таба

Регистрация Запомнить меня
Войти через:  Facebook Google Twitter Vk Yandex Mail.ru

Misc Computer Games - Zoo Tycoon 2 - Fossil Puzzle Game - таба

Печатать
Просмотров: 107
Уроки эстрадного вокала в Санкт-Петербурге
Fossil Puzzle Game (Theme) - Tab

Tuning:
Guitar I/II: Standard

Note I: This is what plays when you're assembling a fossilized 
skeleton in the Extinct Animal Research Lab.  It's from the 
expansion pack called "Extinct Animals" for the PC game, 
"Zoo Tycoon 2."

Note II: To get the timing right, just listen to the song.

___________________

Key

h  = hammer on
___________________

[Guitar I]
[0:00-0:12]
[x1]
E|------------------------------------------------------------|
B|---------------------------------------------------9--------|
G|-----------7--8------------------------7--8-----------------|
D|-7h10------------10--------7h10--------------10-------------|
A|------------------------------------------------------------|
E|------------------------------------------------------------|

[Guitar II]
[0:01-0:07]
E|-12-12--11-11----12-12--11--------12-12--11-11----12-12--11----|
B|---------------------------13-------------------------------10-|
G|---------------------------------------------------------------|
D|---------------------------------------------------------------|
A|---------------------------------------------------------------|
E|---------------------------------------------------------------|

[0:08-0:15]
E|-12-12--11-11----12-12--11--------12-12--11-11----12-12--11----|
B|---------------------------13-------------------------------13-|
G|---------------------------------------------------------------|
D|---------------------------------------------------------------|
A|---------------------------------------------------------------|
E|---------------------------------------------------------------|

[Guitar I]
[0:16-0:23]
[x2]
E|------------------------------------------------------------|
B|-------------------------------------9-9-9-8--8-6-----------|
G|-7-7--8--10--7-7--8--10--7-7--8--10-------------------------|
D|------------------------------------------------------------|
A|------------------------------------------------------------|
E|------------------------------------------------------------|

[0:23-0:32]
E|----10--10-8-------10--10-8-------10--10-8-------10--10-8---8--8--8-|
B|--------------------------------------------------------------------|
G|-8--------------8--------------8--------------8---------------------|
D|--------------------------------------------------------------------|
A|--------------------------------------------------------------------|
E|--------------------------------------------------------------------|

If there's any confusion, questions, or advice on how to 
improve it, please post a comment. Have fun playing, and 
please rate! -Rarrlow
Добавлено: 14.09.2015
Другие материалы по этой песне:
  • Аккорды и текст

Страница создана 14.09.2015
http://primanota.ru/misc-computer-games/zoo-tycoon-2-fossil-puzzle-game-chords.htm
Привет, Гость.
Предлагаем пройти революционный курс по гитаре.
Подарок от PrimaNota.Ru, забирай!