PrimaNota.ru - самый крупный в мире бесплатный архив песенных текстов, аккордов, табулатур и нот


Misc Computer Games - Zoo Tycoon 2 - Marine Animal Training - таба, видео

Регистрация Запомнить меня
Войти через:  Facebook Google Twitter Vk Yandex Mail.ru

Misc Computer Games - Zoo Tycoon 2 - Marine Animal Training - таба, видео

Печатать
Просмотров: 95
Marine Animal Training (Theme) - Tab

Tuning: Standard

Note: This plays while you're training a marine animal 
to perform in a marine animal show.  It's a feature that 
comes with the Zoo Tycoon 2 expansion pack, "Marine Mania."

[Intro]
[x1]
E|---------13---------|
B|-14----------16--14-|
G|-----13-------------|
D|--------------------|
A|--------------------|
E|--------------------|

[x2]
E|-13------------------13------------13------------------13-13-13--13--16-|
B|-----16--14----14--------16--14--------16--14----14---------------------|
G|------------13--------------------------------13------------------------|
D|------------------------------------------------------------------------|
A|------------------------------------------------------------------------|
E|------------------------------------------------------------------------|

[x1]
E|-13------------------13------------13------------------13-13------------|
B|-----16--14----14--------16--14--------16--14----14----------16--13--14-|
G|------------13--------------------------------13------------------------|
D|------------------------------------------------------------------------|
A|------------------------------------------------------------------------|
E|------------------------------------------------------------------------|

If there's any confusion, questions, or advice on how to 
improve it, please post a comment. Have fun playing, and 
please rate! -Rarrlow
Добавлено: 14.09.2015
Другие материалы по этой песне:
  • Аккорды и текст

Страница создана 14.09.2015
http://primanota.ru/misc-computer-games/zoo-tycoon-2-marine-animal-training-chords.htm
Привет, Гость.
Предлагаем пройти революционный курс по гитаре.
Подарок от PrimaNota.Ru, забирай!